  0
SECTION
  2
HEADER
  9
$ACADVER
  1
AC1032
  9
$ACADMAINTVER
 90
        4
  9
$DWGCODEPAGE
  3
ANSI_1252
  9
$LASTSAVEDBY
  1
Earl Weaver
  9
$REQUIREDVERSIONS
160
                 0
  9
$INSBASE
 10
0.0
 20
0.0
 30
0.0
  9
$EXTMIN
 10
31.84210007843636
 20
14.59595569149941
 30
0.0
  9
$EXTMAX
 10
41.84210007843636
 20
21.33186602507772
 30
0.0
  9
$LIMMIN
 10
0.0
 20
0.0
  9
$LIMMAX
 10
12.0
 20
9.0
  9
$ORTHOMODE
 70
     0
  9
$REGENMODE
 70
     1
  9
$FILLMODE
 70
     1
  9
$QTEXTMODE
 70
     0
  9
$MIRRTEXT
 70
     1
  9
$LTSCALE
 40
1.0
  9
$ATTMODE
 70
     1
  9
$TEXTSIZE
 40
0.2
  9
$TRACEWID
 40
0.05
  9
$TEXTSTYLE
  7
EWText
  9
$CLAYER
  8
Cut
  9
$CELTYPE
  6
ByLayer
  9
$CECOLOR
 62
   256
  9
$CELTSCALE
 40
1.0
  9
$DISPSILH
 70
     0
  9
$DIMSCALE
 40
1.0
  9
$DIMASZ
 40
0.85
  9
$DIMEXO
 40
0.85
  9
$DIMDLI
 40
1.0
  9
$DIMRND
 40
0.0
  9
$DIMDLE
 40
0.0
  9
$DIMEXE
 40
0.85
  9
$DIMTP
 40
0.0
  9
$DIMTM
 40
0.0
  9
$DIMTXT
 40
0.85
  9
$DIMCEN
 40
0.85
  9
$DIMTSZ
 40
0.0
  9
$DIMTOL
 70
     0
  9
$DIMLIM
 70
     0
  9
$DIMTIH
 70
     1
  9
$DIMTOH
 70
     1
  9
$DIMSE1
 70
     0
  9
$DIMSE2
 70
     0
  9
$DIMTAD
 70
     0
  9
$DIMZIN
 70
     0
  9
$DIMBLK
  1

  9
$DIMASO
 70
     1
  9
$DIMSHO
 70
     1
  9
$DIMPOST
  1

  9
$DIMAPOST
  1

  9
$DIMALT
 70
     0
  9
$DIMALTD
 70
     2
  9
$DIMALTF
 40
25.4
  9
$DIMLFAC
 40
1.0
  9
$DIMTOFL
 70
     0
  9
$DIMTVP
 40
0.0
  9
$DIMTIX
 70
     0
  9
$DIMSOXD
 70
     0
  9
$DIMSAH
 70
     0
  9
$DIMBLK1
  1

  9
$DIMBLK2
  1

  9
$DIMSTYLE
  2
H
  9
$DIMCLRD
 70
   153
  9
$DIMCLRE
 70
   153
  9
$DIMCLRT
 70
   153
  9
$DIMTFAC
 40
0.75
  9
$DIMGAP
 40
0.1
  9
$DIMJUST
 70
     0
  9
$DIMSD1
 70
     0
  9
$DIMSD2
 70
     0
  9
$DIMTOLJ
 70
     1
  9
$DIMTZIN
 70
     0
  9
$DIMALTZ
 70
     0
  9
$DIMALTTZ
 70
     0
  9
$DIMUPT
 70
     0
  9
$DIMDEC
 70
     4
  9
$DIMTDEC
 70
     4
  9
$DIMALTU
 70
     2
  9
$DIMALTTD
 70
     2
  9
$DIMTXSTY
  7
EWText
  9
$DIMAUNIT
 70
     0
  9
$DIMADEC
 70
     2
  9
$DIMALTRND
 40
0.0
  9
$DIMAZIN
 70
     0
  9
$DIMDSEP
 70
    46
  9
$DIMATFIT
 70
     3
  9
$DIMFRAC
 70
     1
  9
$DIMLDRBLK
  1

  9
$DIMLUNIT
 70
     5
  9
$DIMLWD
 70
    -2
  9
$DIMLWE
 70
    -2
  9
$DIMTMOVE
 70
     0
  9
$DIMFXL
 40
1.0
  9
$DIMFXLON
 70
     0
  9
$DIMJOGANG
 40
0.7853981633974483
  9
$DIMTFILL
 70
     0
  9
$DIMTFILLCLR
 70
     0
  9
$DIMARCSYM
 70
     0
  9
$DIMLTYPE
  6

  9
$DIMLTEX1
  6

  9
$DIMLTEX2
  6

  9
$DIMTXTDIRECTION
 70
     0
  9
$LUNITS
 70
     2
  9
$LUPREC
 70
     4
  9
$SKETCHINC
 40
0.1
  9
$FILLETRAD
 40
0.5
  9
$AUNITS
 70
     0
  9
$AUPREC
 70
     0
  9
$MENU
  1
.
  9
$ELEVATION
 40
0.0
  9
$PELEVATION
 40
0.0
  9
$THICKNESS
 40
0.0
  9
$LIMCHECK
 70
     0
  9
$CHAMFERA
 40
0.5
  9
$CHAMFERB
 40
0.5
  9
$CHAMFERC
 40
1.0
  9
$CHAMFERD
 40
0.0
  9
$SKPOLY
 70
     0
  9
$TDCREATE
 40
2456370.516908808
  9
$TDUCREATE
 40
2456370.766908808
  9
$TDUPDATE
 40
2459156.233762593
  9
$TDUUPDATE
 40
2459156.483762593
  9
$TDINDWG
 40
0.0181668056
  9
$TDUSRTIMER
 40
0.0003479514
  9
$USRTIMER
 70
     1
  9
$ANGBASE
 50
0.0
  9
$ANGDIR
 70
     0
  9
$PDMODE
 70
     0
  9
$PDSIZE
 40
0.0
  9
$PLINEWID
 40
0.0
  9
$SPLFRAME
 70
     0
  9
$SPLINETYPE
 70
     6
  9
$SPLINESEGS
 70
    32
  9
$HANDSEED
  5
1527
  9
$SURFTAB1
 70
     6
  9
$SURFTAB2
 70
     6
  9
$SURFTYPE
 70
     6
  9
$SURFU
 70
     6
  9
$SURFV
 70
     6
  9
$UCSBASE
  2

  9
$UCSNAME
  2

  9
$UCSORG
 10
0.0
 20
0.0
 30
0.0
  9
$UCSXDIR
 10
1.0
 20
0.0
 30
0.0
  9
$UCSYDIR
 10
0.0
 20
1.0
 30
0.0
  9
$UCSORTHOREF
  2

  9
$UCSORTHOVIEW
 70
     0
  9
$UCSORGTOP
 10
0.0
 20
0.0
 30
0.0
  9
$UCSORGBOTTOM
 10
0.0
 20
0.0
 30
0.0
  9
$UCSORGLEFT
 10
0.0
 20
0.0
 30
0.0
  9
$UCSORGRIGHT
 10
0.0
 20
0.0
 30
0.0
  9
$UCSORGFRONT
 10
0.0
 20
0.0
 30
0.0
  9
$UCSORGBACK
 10
0.0
 20
0.0
 30
0.0
  9
$PUCSBASE
  2

  9
$PUCSNAME
  2

  9
$PUCSORG
 10
0.0
 20
0.0
 30
0.0
  9
$PUCSXDIR
 10
1.0
 20
0.0
 30
0.0
  9
$PUCSYDIR
 10
0.0
 20
1.0
 30
0.0
  9
$PUCSORTHOREF
  2

  9
$PUCSORTHOVIEW
 70
     0
  9
$PUCSORGTOP
 10
0.0
 20
0.0
 30
0.0
  9
$PUCSORGBOTTOM
 10
0.0
 20
0.0
 30
0.0
  9
$PUCSORGLEFT
 10
0.0
 20
0.0
 30
0.0
  9
$PUCSORGRIGHT
 10
0.0
 20
0.0
 30
0.0
  9
$PUCSORGFRONT
 10
0.0
 20
0.0
 30
0.0
  9
$PUCSORGBACK
 10
0.0
 20
0.0
 30
0.0
  9
$USERI1
 70
     0
  9
$USERI2
 70
     0
  9
$USERI3
 70
     0
  9
$USERI4
 70
     0
  9
$USERI5
 70
     0
  9
$USERR1
 40
0.0
  9
$USERR2
 40
0.0
  9
$USERR3
 40
0.0
  9
$USERR4
 40
0.0
  9
$USERR5
 40
0.0
  9
$WORLDVIEW
 70
     1
  9
$SHADEDGE
 70
     3
  9
$SHADEDIF
 70
    70
  9
$TILEMODE
 70
     1
  9
$MAXACTVP
 70
    64
  9
$PINSBASE
 10
0.0
 20
0.0
 30
0.0
  9
$PLIMCHECK
 70
     0
  9
$PEXTMIN
 10
1.05
 20
0.6999999999999997
 30
0.0
  9
$PEXTMAX
 10
9.45
 20
6.300000000000001
 30
0.0
  9
$PLIMMIN
 10
-0.25
 20
-0.7499999999999999
  9
$PLIMMAX
 10
10.75
 20
7.75
  9
$UNITMODE
 70
     0
  9
$VISRETAIN
 70
     1
  9
$PLINEGEN
 70
     0
  9
$PSLTSCALE
 70
     1
  9
$TREEDEPTH
 70
  3020
  9
$CMLSTYLE
  2
Standard
  9
$CMLJUST
 70
     0
  9
$CMLSCALE
 40
1.0
  9
$PROXYGRAPHICS
 70
     1
  9
$MEASUREMENT
 70
     0
  9
$CELWEIGHT
370
    -1
  9
$ENDCAPS
280
     0
  9
$JOINSTYLE
280
     0
  9
$LWDISPLAY
290
     0
  9
$INSUNITS
 70
     1
  9
$HYPERLINKBASE
  1

  9
$STYLESHEET
  1
monochrome.ctb
  9
$XEDIT
290
     1
  9
$CEPSNTYPE
380
     0
  9
$PSTYLEMODE
290
     1
  9
$FINGERPRINTGUID
  2
{FDEAD576-A652-11D2-9A35-0060089B3A3F}
  9
$VERSIONGUID
  2
{90987328-162A-4BC1-8C1C-2EF3CF60367C}
  9
$EXTNAMES
290
     1
  9
$PSVPSCALE
 40
0.0
  9
$OLESTARTUP
290
     0
  9
$SORTENTS
280
   127
  9
$INDEXCTL
280
     0
  9
$HIDETEXT
280
     1
  9
$XCLIPFRAME
280
     2
  9
$HALOGAP
280
     0
  9
$OBSCOLOR
 70
   257
  9
$OBSLTYPE
280
     0
  9
$INTERSECTIONDISPLAY
280
     0
  9
$INTERSECTIONCOLOR
 70
   257
  9
$DIMASSOC
280
     2
  9
$PROJECTNAME
  1

  9
$CAMERADISPLAY
290
     0
  9
$LENSLENGTH
 40
50.0
  9
$CAMERAHEIGHT
 40
0.0
  9
$STEPSPERSEC
 40
2.0
  9
$STEPSIZE
 40
6.0
  9
$3DDWFPREC
 40
2.0
  9
$PSOLWIDTH
 40
0.25
  9
$PSOLHEIGHT
 40
4.0
  9
$LOFTANG1
 40
1.570796326794897
  9
$LOFTANG2
 40
1.570796326794897
  9
$LOFTMAG1
 40
0.0
  9
$LOFTMAG2
 40
0.0
  9
$LOFTPARAM
 70
     7
  9
$LOFTNORMALS
280
     1
  9
$LATITUDE
 40
37.795
  9
$LONGITUDE
 40
-122.394
  9
$NORTHDIRECTION
 40
0.0
  9
$TIMEZONE
 70
 -8000
  9
$LIGHTGLYPHDISPLAY
280
     1
  9
$TILEMODELIGHTSYNCH
280
     1
  9
$SOLIDHIST
280
     0
  9
$SHOWHIST
280
     1
  9
$DWFFRAME
280
     2
  9
$DGNFRAME
280
     2
  9
$REALWORLDSCALE
290
     1
  9
$INTERFERECOLOR
 62
   256
  9
$CSHADOW
280
     0
  9
$SHADOWPLANELOCATION
 40
0.0
  0
ENDSEC
  0
SECTION
  2
CLASSES
  0
CLASS
  1
ACDBDICTIONARYWDFLT
  2
AcDbDictionaryWithDefault
  3
ObjectDBX Classes
 90
        0
 91
        3
280
     0
281
     0
  0
CLASS
  1
ACDBPLACEHOLDER
  2
AcDbPlaceHolder
  3
ObjectDBX Classes
 90
        0
 91
        1
280
     0
281
     0
  0
CLASS
  1
LAYOUT
  2
AcDbLayout
  3
ObjectDBX Classes
 90
        0
 91
        1
280
     0
281
     0
  0
CLASS
  1
PLOTSETTINGS
  2
AcDbPlotSettings
  3
ObjectDBX Classes
 90
        0
 91
        3
280
     0
281
     0
  0
CLASS
  1
VISUALSTYLE
  2
AcDbVisualStyle
  3
ObjectDBX Classes
 90
     4095
 91
        3
280
     0
281
     0
  0
CLASS
  1
SCALE
  2
AcDbScale
  3
ObjectDBX Classes
 90
     1153
 91
        3
280
     0
281
     0
  0
CLASS
  1
MATERIAL
  2
AcDbMaterial
  3
ObjectDBX Classes
 90
     1153
 91
        3
280
     0
281
     0
  0
CLASS
  1
TABLESTYLE
  2
AcDbTableStyle
  3
ObjectDBX Classes
 90
     4095
 91
        3
280
     0
281
     0
  0
CLASS
  1
MLEADERSTYLE
  2
AcDbMLeaderStyle
  3
ACDB_MLEADERSTYLE_CLASS
 90
     4095
 91
        3
280
     0
281
     0
  0
CLASS
  1
SUN
  2
AcDbSun
  3
SCENEOE
 90
     1153
 91
        3
280
     0
281
     0
  0
CLASS
  1
RASTERVARIABLES
  2
AcDbRasterVariables
  3
ISM
 90
        0
 91
        3
280
     0
281
     0
  0
CLASS
  1
DICTIONARYVAR
  2
AcDbDictionaryVar
  3
ObjectDBX Classes
 90
        0
 91
        3
280
     0
281
     0
  0
CLASS
  1
DIMASSOC
  2
AcDbDimAssoc
  3
"AcDbDimAssoc|Product Desc:     AcDim ARX App For Dimension|Company:          Autodesk, Inc.|WEB Address:      www.autodesk.com"
 90
        0
 91
        3
280
     0
281
     0
  0
CLASS
  1
SORTENTSTABLE
  2
AcDbSortentsTable
  3
ObjectDBX Classes
 90
        0
 91
        3
280
     0
281
     0
  0
CLASS
  1
FIELD
  2
AcDbField
  3
ObjectDBX Classes
 90
     1152
 91
        3
280
     0
281
     0
  0
CLASS
  1
FIELDLIST
  2
AcDbFieldList
  3
ObjectDBX Classes
 90
     1152
 91
        3
280
     0
281
     0
  0
CLASS
  1
CELLSTYLEMAP
  2
AcDbCellStyleMap
  3
ObjectDBX Classes
 90
     1152
 91
        3
280
     0
281
     0
  0
ENDSEC
  0
SECTION
  2
TABLES
  0
TABLE
  2
VPORT
  5
8
330
0
100
AcDbSymbolTable
 70
     1
  0
VPORT
  5
A7F
330
8
100
AcDbSymbolTableRecord
100
AcDbViewportTableRecord
  2
*Active
 70
     0
 10
0.0
 20
0.0
 11
1.0
 21
1.0
 12
37.12139554245953
 22
17.89346548667241
 13
0.0
 23
0.0
 14
0.5
 24
0.5
 15
0.5
 25
0.5
 16
0.0
 26
0.0
 36
1.0
 17
0.0
 27
0.0
 37
0.0
 40
9.570631232997666
 41
1.845758354755784
 42
50.0
 43
0.0
 44
0.0
 50
0.0
 51
0.0
 71
    16
 72
   200
 73
     1
 74
     0
 75
     0
 76
     0
 77
     0
 78
     0
281
     0
 65
     1
110
0.0
120
0.0
130
0.0
111
1.0
121
0.0
131
0.0
112
0.0
122
1.0
132
0.0
 79
     0
146
0.0
348
A85
 60
     3
 61
     5
292
     1
282
     1
141
0.0
142
0.0
 63
   256
361
AC4
  0
ENDTAB
  0
TABLE
  2
LTYPE
  5
5
330
0
100
AcDbSymbolTable
 70
     2
  0
LTYPE
  5
14
330
5
100
AcDbSymbolTableRecord
100
AcDbLinetypeTableRecord
  2
ByBlock
 70
     0
  3

 72
    65
 73
     0
 40
0.0
  0
LTYPE
  5
15
330
5
100
AcDbSymbolTableRecord
100
AcDbLinetypeTableRecord
  2
ByLayer
 70
     0
  3
Solid line
 72
    65
 73
     0
 40
0.0
  0
LTYPE
  5
16
330
5
100
AcDbSymbolTableRecord
100
AcDbLinetypeTableRecord
  2
Continuous
 70
     0
  3
Solid line
 72
    65
 73
     0
 40
0.0
  0
LTYPE
  5
3FF
330
5
100
AcDbSymbolTableRecord
100
AcDbLinetypeTableRecord
  2
HIDDEN
 70
     0
  3
__ __ __ __ __ __ __ __ __ __ __ __ __ __ __ __
 72
    65
 73
     2
 40
0.375
 49
0.25
 74
     0
 49
-0.125
 74
     0
  0
ENDTAB
  0
TABLE
  2
LAYER
  5
2
102
{ACAD_XDICTIONARY
360
AEF
102
}
330
0
100
AcDbSymbolTable
 70
    12
  0
LAYER
  5
10
330
2
100
AcDbSymbolTableRecord
100
AcDbLayerTableRecord
  2
0
 70
     0
 62
     7
  6
Continuous
370
    -3
390
F
347
ABE
348
0
  0
LAYER
  5
7C
330
2
100
AcDbSymbolTableRecord
100
AcDbLayerTableRecord
  2
Defpoints
 70
     0
 62
     7
  6
Continuous
290
     0
370
    -3
390
F
347
ABE
348
0
  0
LAYER
  5
2DA
330
2
100
AcDbSymbolTableRecord
100
AcDbLayerTableRecord
  2
FRAME 070
 70
     0
 62
     5
  6
Continuous
370
    -3
390
F
347
ABE
348
0
  0
LAYER
  5
2DB
330
2
100
AcDbSymbolTableRecord
100
AcDbLayerTableRecord
  2
FRAME 050
 70
     0
 62
     6
  6
Continuous
370
    -3
390
F
347
ABE
348
0
  0
LAYER
  5
2DC
330
2
100
AcDbSymbolTableRecord
100
AcDbLayerTableRecord
  2
FRAME 025
 70
     0
 62
     7
  6
Continuous
370
    -3
390
F
347
ABE
348
0
  0
LAYER
  5
2DD
330
2
100
AcDbSymbolTableRecord
100
AcDbLayerTableRecord
  2
FRAME 200
 70
     0
 62
     8
  6
Continuous
370
    -3
390
F
347
ABE
348
0
  0
LAYER
  5
2E1
330
2
100
AcDbSymbolTableRecord
100
AcDbLayerTableRecord
  2
Title Block
 70
     0
 62
     7
  6
Continuous
370
    -3
390
F
347
ABE
348
0
  0
LAYER
  5
2E2
330
2
100
AcDbSymbolTableRecord
100
AcDbLayerTableRecord
  2
Viewport
 70
     0
 62
     7
  6
Continuous
370
     5
390
F
347
ABE
348
0
  0
LAYER
  5
93B
330
2
100
AcDbSymbolTableRecord
100
AcDbLayerTableRecord
  2
List of Material
 70
     0
 62
     7
  6
Continuous
370
    -3
390
F
347
ABE
348
0
  0
LAYER
  5
AF4
330
2
100
AcDbSymbolTableRecord
100
AcDbLayerTableRecord
  2
Cut
 70
     0
 62
     7
  6
Continuous
370
    -3
390
F
347
ABE
348
0
1001
AcAecLayerStandard
1000

1000
Cut Layer for CNC Plasma
1001
AcCmTransparency
1071
 33554687
  0
LAYER
  5
AF7
330
2
100
AcDbSymbolTableRecord
100
AcDbLayerTableRecord
  2
Bend
 70
     0
 62
   251
  6
HIDDEN
370
    -3
390
F
347
ABE
348
0
1001
AcAecLayerStandard
1000

1000
Bend Layer
1001
AcCmTransparency
1071
 33554687
  0
LAYER
  5
B6D
330
2
100
AcDbSymbolTableRecord
100
AcDbLayerTableRecord
  2
BOM
 70
     0
 62
   105
  6
Continuous
370
    -3
390
F
347
ABE
348
0
1001
AcAecLayerStandard
1000

1000
Cut Layer for CNC Plasma
1001
AcCmTransparency
1071
 33554687
  0
ENDTAB
  0
TABLE
  2
STYLE
  5
3
330
0
100
AcDbSymbolTable
 70
     4
  0
STYLE
  5
11
330
3
100
AcDbSymbolTableRecord
100
AcDbTextStyleTableRecord
  2
Standard
 70
     0
 40
0.0
 41
1.0
 50
0.0
 71
     0
 42
0.2
  3
txt
  4

  0
STYLE
  5
9E
330
3
100
AcDbSymbolTableRecord
100
AcDbTextStyleTableRecord
  2
EWText
 70
     0
 40
0.0
 41
1.0
 50
0.0
 71
     0
 42
0.2
  3
TIMES.TTF
  4

1001
ACAD
1000
Times New Roman
1071
       18
  0
STYLE
  5
2E3
330
3
100
AcDbSymbolTableRecord
100
AcDbTextStyleTableRecord
  2
ISO Proportional
 70
     0
 40
0.0
 41
1.0
 50
0.0
 71
     0
 42
2.5
  3
isocp
  4

  0
STYLE
  5
400
330
3
100
AcDbSymbolTableRecord
100
AcDbTextStyleTableRecord
  2
ATTR
 70
     0
 40
0.01164550754666
 41
0.8
 50
0.0
 71
     0
 42
0.01164550754666
  3
romans.shx
  4

  0
ENDTAB
  0
TABLE
  2
VIEW
  5
6
330
0
100
AcDbSymbolTable
 70
     0
  0
ENDTAB
  0
TABLE
  2
UCS
  5
7
330
0
100
AcDbSymbolTable
 70
     0
  0
ENDTAB
  0
TABLE
  2
APPID
  5
9
330
0
100
AcDbSymbolTable
 70
     3
  0
APPID
  5
12
330
9
100
AcDbSymbolTableRecord
100
AcDbRegAppTableRecord
  2
ACAD
 70
     0
  0
APPID
  5
AF5
330
9
100
AcDbSymbolTableRecord
100
AcDbRegAppTableRecord
  2
AcAecLayerStandard
 70
     0
  0
APPID
  5
AF6
330
9
100
AcDbSymbolTableRecord
100
AcDbRegAppTableRecord
  2
AcCmTransparency
 70
     0
  0
ENDTAB
  0
TABLE
  2
DIMSTYLE
  5
A
330
0
100
AcDbSymbolTable
 70
    14
100
AcDbDimStyleTable
  0
DIMSTYLE
105
27
330
A
100
AcDbSymbolTableRecord
100
AcDbDimStyleTableRecord
  2
Standard
 70
     0
178
     0
340
11
  0
DIMSTYLE
105
9F
330
A
100
AcDbSymbolTableRecord
100
AcDbDimStyleTableRecord
  2
A
 70
     0
176
   153
177
   153
178
   153
179
     2
276
     1
277
     5
340
9E
  0
DIMSTYLE
105
30C
330
A
100
AcDbSymbolTableRecord
100
AcDbDimStyleTableRecord
  2
B
 70
     0
 41
0.2
 42
0.2
 44
0.2
140
0.2
141
0.2
146
0.75
147
0.1
176
   153
177
   153
178
   153
179
     2
276
     1
277
     5
340
9E
  0
DIMSTYLE
105
337
330
A
100
AcDbSymbolTableRecord
100
AcDbDimStyleTableRecord
  2
C
 70
     0
 41
0.3
 42
0.3
 43
0.5
 44
0.3
140
0.3
141
0.3
146
0.75
147
0.1
176
   153
177
   153
178
   153
179
     2
276
     1
277
     5
340
9E
  0
DIMSTYLE
105
338
330
A
100
AcDbSymbolTableRecord
100
AcDbDimStyleTableRecord
  2
D
 70
     0
 41
0.4
 42
0.4
 43
0.6
 44
0.4
140
0.4
141
0.4
146
0.75
147
0.1
176
   153
177
   153
178
   153
179
     2
276
     1
277
     5
340
9E
  0
DIMSTYLE
105
339
330
A
100
AcDbSymbolTableRecord
100
AcDbDimStyleTableRecord
  2
E
 70
     0
 41
0.5
 42
0.5
 43
0.7
 44
0.5
140
0.5
141
0.5
146
0.75
147
0.1
176
   153
177
   153
178
   153
179
     2
276
     1
277
     5
340
9E
  0
DIMSTYLE
105
33A
330
A
100
AcDbSymbolTableRecord
100
AcDbDimStyleTableRecord
  2
F
 70
     0
 41
0.6
 42
0.6
 43
0.8
 44
0.6
140
0.6
141
0.6
146
0.75
147
0.1
176
   153
177
   153
178
   153
179
     2
276
     1
277
     5
340
9E
  0
DIMSTYLE
105
33B
330
A
100
AcDbSymbolTableRecord
100
AcDbDimStyleTableRecord
  2
G
 70
     0
 41
0.7
 42
0.7
 43
2.0
 44
0.7
140
0.7
141
0.7
146
0.75
147
0.1
176
   153
177
   153
178
   153
179
     2
276
     1
277
     5
340
9E
  0
DIMSTYLE
105
33C
330
A
100
AcDbSymbolTableRecord
100
AcDbDimStyleTableRecord
  2
H
 70
     0
 41
0.85
 42
0.85
 43
1.0
 44
0.85
140
0.85
141
0.85
146
0.75
147
0.1
176
   153
177
   153
178
   153
179
     2
276
     1
277
     5
340
9E
  0
DIMSTYLE
105
33D
330
A
100
AcDbSymbolTableRecord
100
AcDbDimStyleTableRecord
  2
I
 70
     0
 41
1.0
 42
1.0
 43
1.5
 44
1.0
140
1.0
141
1.0
146
0.75
147
0.2
176
   153
177
   153
178
   153
179
     2
276
     1
277
     5
340
9E
  0
DIMSTYLE
105
33E
330
A
100
AcDbSymbolTableRecord
100
AcDbDimStyleTableRecord
  2
J
 70
     0
 41
1.5
 42
1.5
 43
2.0
 44
1.5
140
1.5
141
1.5
146
0.75
147
0.2
176
   153
177
   153
178
   153
179
     2
276
     1
277
     5
340
9E
  0
DIMSTYLE
105
33F
330
A
100
AcDbSymbolTableRecord
100
AcDbDimStyleTableRecord
  2
K
 70
     0
 41
2.0
 42
2.0
 43
2.5
 44
2.0
140
2.0
141
2.0
146
0.75
147
0.2
176
   153
177
   153
178
   153
179
     2
276
     1
277
     5
340
9E
  0
DIMSTYLE
105
340
330
A
100
AcDbSymbolTableRecord
100
AcDbDimStyleTableRecord
  2
L
 70
     0
 41
3.0
 42
3.0
 43
3.0
 44
3.0
140
3.0
141
3.0
146
0.75
147
0.2
176
   153
177
   153
178
   153
179
     2
276
     1
277
     5
340
9E
  0
DIMSTYLE
105
341
330
A
100
AcDbSymbolTableRecord
100
AcDbDimStyleTableRecord
  2
M
 70
     0
 41
5.0
 42
5.0
 43
6.0
 44
5.0
140
5.0
141
5.0
146
0.75
147
0.5
176
   153
177
   153
178
   153
179
     2
276
     1
277
     5
340
9E
  0
ENDTAB
  0
TABLE
  2
BLOCK_RECORD
  5
1
330
0
100
AcDbSymbolTable
 70
     8
  0
BLOCK_RECORD
  5
1F
102
{ACAD_XDICTIONARY
360
BA7
102
}
330
1
100
AcDbSymbolTableRecord
100
AcDbBlockTableRecord
  2
*Model_Space
340
22
 70
     0
280
     1
281
     0
  0
BLOCK_RECORD
  5
A7A
330
1
100
AcDbSymbolTableRecord
100
AcDbBlockTableRecord
  2
*Paper_Space
340
A7B
 70
     0
280
     1
281
     0
  0
BLOCK_RECORD
  5
266
330
1
100
AcDbSymbolTableRecord
100
AcDbBlockTableRecord
  2
ISO A4 title block (portrait)
340
0
310
2800000020000000200000000100080000000000000400000000000000000000000000000000000000000000000080000080000000808000800000008000800080800000C0C0C000C0DCC000F0CAA6000020400000206000002080000020A0000020C0000020E00000400000004020000040400000406000004080000040A0
310
000040C0000040E00000600000006020000060400000606000006080000060A0000060C0000060E00000800000008020000080400000806000008080000080A0000080C0000080E00000A0000000A0200000A0400000A0600000A0800000A0A00000A0C00000A0E00000C0000000C0200000C0400000C0600000C0800000C0
310
A00000C0C00000C0E00000E0000000E0200000E0400000E0600000E0800000E0A00000E0C00000E0E00040000000400020004000400040006000400080004000A0004000C0004000E00040200000402020004020400040206000402080004020A0004020C0004020E000404000004040200040404000404060004040800040
310
40A0004040C0004040E00040600000406020004060400040606000406080004060A0004060C0004060E00040800000408020004080400040806000408080004080A0004080C0004080E00040A0000040A0200040A0400040A0600040A0800040A0A00040A0C00040A0E00040C0000040C0200040C0400040C0600040C08000
310
40C0A00040C0C00040C0E00040E0000040E0200040E0400040E0600040E0800040E0A00040E0C00040E0E00080000000800020008000400080006000800080008000A0008000C0008000E00080200000802020008020400080206000802080008020A0008020C0008020E00080400000804020008040400080406000804080
310
008040A0008040C0008040E00080600000806020008060400080606000806080008060A0008060C0008060E00080800000808020008080400080806000808080008080A0008080C0008080E00080A0000080A0200080A0400080A0600080A0800080A0A00080A0C00080A0E00080C0000080C0200080C0400080C0600080C0
310
800080C0A00080C0C00080C0E00080E0000080E0200080E0400080E0600080E0800080E0A00080E0C00080E0E000C0000000C0002000C0004000C0006000C0008000C000A000C000C000C000E000C0200000C0202000C0204000C0206000C0208000C020A000C020C000C020E000C0400000C0402000C0404000C0406000C0
310
408000C040A000C040C000C040E000C0600000C0602000C0604000C0606000C0608000C060A000C060C000C060E000C0800000C0802000C0804000C0806000C0808000C080A000C080C000C080E000C0A00000C0A02000C0A04000C0A06000C0A08000C0A0A000C0A0C000C0A0E000C0C00000C0C02000C0C04000C0C06000
310
C0C08000C0C0A000F0FBFF00A4A0A000808080000000FF0000FF000000FFFF00FF000000FF00FF00FFFF0000FFFFFF00FFFFFFFFFFFFFFFFFFFFFFFFFFFFFFFFFFFFFFFFFFFFFFFFFFFFFFFFFFFFFFFFFFFFFFFFFFFFA4FFFFFFFFFFFFFFFFFFFFFFFFFFFFFFFFFFFFA4FFFFFFFFFFFFFFFFFFFFFFFFA4FCFCFDFCFDFDFDFD
310
FDFDFDFDFDFDFCFDFCFCA4FFFFFFFFFFFFFFFFFFFFFFFFFCFFFCFFFFFDFDFDFFFDFDFDFDFDFDFC00FC00FCFFFFFFFFFFFFFFFFFFFFFFFFFDFFFC0000FDFDFDFC00FCFC00FDFDFDFC0000FDFFFFFFFFFFFFFFFFFFFFFFFFFDFFFC0000000000FC0000FC00000000000000FDFFFFFFFFFFFFFFFFFFFFFFFFFCFFFC0000000000
310
0000000000FCFC000000FCFCFFFFFFFFFFFFFFFFFFFFFFFFFDFFFFFFFFFFFFFFFFFFFFFFFFFFFFFFFFFFFFFDFFFFFFFFFFFFFFFFFFFFFFFFFCFFFFFFFFFFFFFFFFFFFFFFFFFFFFFFFFFFFFFCFFFFFFFFFFFFFFFFFFFFFFFFFDFFFFFFFFFFFFFFFFFFFFFFFFFFFFFFFFFFFFFDFFFFFFFFFFFFFFFFFFFFFFFFFCFFFFFFFFFFFF
310
FFFFFFFFFFFFFFFFFFFFFFFFFCFFFFFFFFFFFFFFFFFFFFFFFFFDFFFFFFFFFFFFFFFFFFFFFFFFFFFFFFFFFFFFFDFFFFFFFFFFFFFFFFFFFFFFFFFCFFFFFFFFFFFFFFFFFFFFFFFFFFFFFFFFFFFFFCFFFFFFFFFFFFFFFFFFFFFFFFFDFFFFFFFFFFFFFFFFFFFFFFFFFFFFFFFFFFFFFDFFFFFFFFFFFFFFFFFFFFFFFFFCFFFFFFFFFF
310
FFFFFFFFFFFFFFFFFFFFFFFFFFFCFFFFFFFFFFFFFFFFFFFFFFFFFCFDFFFFFFFFFFFFFFFFFFFFFFFFFFFFFFFFFFFCFFFFFFFFFFFFFFFFFFFFFFFFFDFDFFFFFFFFFFFFFFFFFFFFFFFFFFFFFFFFFDFDFFFFFFFFFFFFFFFFFFFFFFFFFCFFFFFFFFFFFFFFFFFFFFFFFFFFFFFFFFFFFFFCFFFFFFFFFFFFFFFFFFFFFFFFFDFFFFFFFF
310
FFFFFFFFFFFFFFFFFFFFFFFFFFFFFDFFFFFFFFFFFFFFFFFFFFFFFFFCFFFFFFFFFFFFFFFFFFFFFFFFFFFFFFFFFFFFFCFFFFFFFFFFFFFFFFFFFFFFFFFDFFFFFFFFFFFFFFFFFFFFFFFFFFFFFFFFFFFFFDFFFFFFFFFFFFFFFFFFFFFFFFFCFFFFFFFFFFFFFFFFFFFFFFFFFFFFFFFFFFFFFCFFFFFFFFFFFFFFFFFFFFFFFFFDFFFFFF
310
FFFFFFFFFFFFFFFFFFFFFFFFFFFFFFFDFFFFFFFFFFFFFFFFFFFFFFFFFCFFFFFFFFFFFFFFFFFFFFFFFFFFFFFFFFFFFFFCFFFFFFFFFFFFFFFFFFFFFFFFFDFFFFFFFFFFFFFFFFFFFFFFFFFFFFFFFFFFFFFDFFFFFFFFFFFFFFFFFFFFFFFFFCFFFFFFFFFFFFFFFFFFFFFFFFFFFFFFFFFFFFFCFFFFFFFFFFFFFFFFFFFFFFFFFDFFFF
310
FFFFFFFFFFFFFFFFFFFFFFFFFFFFFFFFFDFFFFFFFFFFFFFFFFFFFFFFFFFDFFFFFFFFFFFFFFFFFFFFFFFFFFFFFFFFFFFFFDFFFFFFFFFFFFFFFFFFFFFFFFFCFFFC00FC0000FCFCFCFDFCFCFC0000FCFC00FCFFFFFFFFFFFFFFFFFFFFFFFFA4FCFCFDFCFDFCFDFCFCFDFCFDFCFCFCFCFCFCA4FFFFFFFFFFFFFFFFFFFFFFFFA4FF
310
FFFFFFFFFFFFFFFFFFFFFFFFFFFFFFFFFFA4FFFFFFFFFFFFFFFFFFFFFFFFFFFFFFFFFFFFFFFFFFFFFFFFFFFFFFFFFFFFFFFFFFFFFFFFFFFF
 70
     4
280
     1
281
     0
1001
ACAD
1000
DesignCenter Data
1002
{
1070
     1
1070
     4
1002
}
  0
BLOCK_RECORD
  5
3E6
330
1
100
AcDbSymbolTableRecord
100
AcDbBlockTableRecord
  2
0d5 Bolt Hexfinished Sv
340
0
310
28000000200000002000000001000800000000000004000000000000000000000000000000000000000000004000000080000000FF000000002000004020000080200000FF200000004000004040000080400000FF400000006000004060000080600000FF600000008000004080000080800000FF80000000A0000040A000
310
0080A00000FFA0000000C0000040C0000080C00000FFC0000000FF000040FF000080FF0000FFFF0000000020004000200080002000FF002000002020004020200080202000FF202000004020004040200080402000FF402000006020004060200080602000FF602000008020004080200080802000FF80200000A0200040A0
310
200080A02000FFA0200000C0200040C0200080C02000FFC0200000FF200040FF200080FF2000FFFF2000000040004000400080004000FF004000002040004020400080204000FF204000004040004040400080404000FF404000006040004060400080604000FF604000008040004080400080804000FF80400000A0400040
310
A0400080A04000FFA0400000C0400040C0400080C04000FFC0400000FF400040FF400080FF4000FFFF4000000060004000600080006000FF006000002060004020600080206000FF206000004060004040600080406000FF406000006060004060600080606000FF606000008060004080600080806000FF80600000A06000
310
40A0600080A06000FFA0600000C0600040C0600080C06000FFC0600000FF600040FF600080FF6000FFFF6000000080004000800080008000FF008000002080004020800080208000FF208000004080004040800080408000FF408000006080004060800080608000FF608000008080004080800080808000FF80800000A080
310
0040A0800080A08000FFA0800000C0800040C0800080C08000FFC0800000FF800040FF800080FF8000FFFF80000000A0004000A0008000A000FF00A0000020A0004020A0008020A000FF20A0000040A0004040A0008040A000FF40A0000060A0004060A0008060A000FF60A0000080A0004080A0008080A000FF80A00000A0
310
A00040A0A00080A0A000FFA0A00000C0A00040C0A00080C0A000FFC0A00000FFA00040FFA00080FFA000FFFFA0000000C0004000C0008000C000FF00C0000020C0004020C0008020C000FF20C0000040C0004040C0008040C000FF40C0000060C0004060C0008060C000FF60C0000080C0004080C0008080C000FF80C00000
310
A0C00040A0C00080A0C000FFA0C00000C0C00040C0C00080C0C000FFC0C00000FFC00040FFC00080FFC000FFFFC0000000FF004000FF008000FF00FF00FF000020FF004020FF008020FF00FF20FF000040FF004040FF008040FF00FF40FF000060FF004060FF008060FF00FF60FF000080FF004080FF008080FF00FF80FF00
310
00A0FF0040A0FF0080A0FF00FFA0FF0000C0FF0040C0FF0080C0FF00FFC0FF0000FFFF0040FFFF0080FFFF00FFFFFF00FFFFFFFFFFFFFFFFFFFFFFFFFFFFFFFFFFFFFFFFFFFFFFFFFFFFFFFFFFFFFFFFFFFFFFFFFFFFFFFFFFFFFFFFFFFFFFFFFFFFFFFFFFFFFFFFFFFFFFFFFFFFFFFFFFFFFFFFFFFFFFFFFFFFFFFFFFFFFF
310
FFFFFFFFFFFFFFFFFFFFFFFFFFFFFFFFFFFFFFFFFFFFFFFFFFFFFFFFFFFFFFFFFFFFFFFFFFFFFFFFFFFFFFFFFFFFFFFFFFFFFFFFFFFFFFFFFFFFFFFFFFFFFFFFFFFFFFFFFFFFFFFFFFFFFFFFFFFFFFFFFFFFFFFFFFFFFFFFFFFFFFFFFFFFFFFFFFFFFFFFFFFFFFFFFFFFFFFFFFFFFFFFFFFFFFFFFFFFFFFFFFFFFFFFFFFFFF
310
FFFFFFFFFFFFFFFFFFFFFFFFFFFFFFFFFFFFFFFF00000000000000FFFFFFFFFFFFFFFFFFFFFFFFFFFFFFFFFFFFFFFFFFFFFFFF0000FFFFFFFFFF0000FFFFFFFFFFFFFFFFFFFFFFFFFFFFFFFFFFFFFFFFFFFFFF00FFFFFFFFFFFF0000FFFFFFFFFFFFFFFFFFFFFFFFFFFFFFFFFFFFFFFFFFFFFF0000FFFFFFFFFF0000000000
310
0000000000000000000000000000000000FFFFFF000000000000000000FFFFFFFFFFFFFFFFFF000000000000000000000000FFFF0000FFFFFFFFFF0000FFFFFFFFFFFFFFFFFF00FFFFFFFFFFFFFFFFFF0000FFFF0000FFFFFFFFFF0000FFFFFFFFFFFFFFFFFF00FFFFFFFFFFFFFFFFFF0000FFFF0000FFFFFFFFFF0000FFFF
310
FFFFFFFFFFFFFF00FFFFFFFFFFFFFFFFFF0000FFFF00FFFFFFFFFFFF0000FFFFFFFFFFFFFFFFFF00FFFFFFFFFFFFFFFFFF0000FFFF00FFFFFFFFFFFF0000FFFFFFFFFFFFFFFFFF00FFFFFFFFFFFFFFFFFF0000FFFF0000FFFFFFFFFF0000FFFFFFFFFFFFFFFFFF00FFFFFFFFFFFFFFFFFF0000FFFF0000FFFFFFFFFF0000FF
310
FFFFFFFFFFFFFFFF00FFFFFFFFFFFFFFFFFF0000FFFF0000FFFFFFFFFF0000FFFFFFFFFFFFFFFFFF00FFFFFFFFFFFFFFFFFF0000FFFF000000000000000000FFFFFFFFFFFFFFFFFF000000000000000000000000FFFF0000FFFFFFFFFF00000000000000000000000000000000000000000000FFFFFF00FFFFFFFFFFFF0000
310
FFFFFFFFFFFFFFFFFFFFFFFFFFFFFFFFFFFFFFFFFFFFFF0000FFFFFFFFFF0000FFFFFFFFFFFFFFFFFFFFFFFFFFFFFFFFFFFFFFFFFFFFFFFF00000000000000FFFFFFFFFFFFFFFFFFFFFFFFFFFFFFFFFFFFFFFFFFFFFFFFFFFFFFFFFFFFFFFFFFFFFFFFFFFFFFFFFFFFFFFFFFFFFFFFFFFFFFFFFFFFFFFFFFFFFFFFFFFFFFFF
310
FFFFFFFFFFFFFFFFFFFFFFFFFFFFFFFFFFFFFFFFFFFFFFFFFFFFFFFFFFFFFFFFFFFFFFFFFFFFFFFFFFFFFFFFFFFFFFFFFFFFFFFFFFFFFFFFFFFFFFFFFFFFFFFFFFFFFFFFFFFFFFFFFFFFFFFFFFFFFFFFFFFFFFFFFFFFFFFFFFFFFFFFFFFFFFFFFFFFFFFFFFFFFFFFFFFFFFFFFFFFFFFFFFFFFFFFFFFFFFFFFFFFFFFFFFFFFF
310
FFFFFFFFFFFFFFFFFFFFFFFFFFFFFFFFFFFFFFFFFFFFFFFFFFFFFFFFFFFFFFFFFFFFFFFFFFFFFFFFFFFFFFFFFFFFFFFFFFFFFFFFFFFFFFFF
 70
     0
280
     1
281
     0
  0
BLOCK_RECORD
  5
40C
330
1
100
AcDbSymbolTableRecord
100
AcDbBlockTableRecord
  2
0d5 Bolt Hexhead Sv
340
0
310
28000000200000002000000001000800000000000004000000000000000000000000000000000000000000004000000080000000FF000000002000004020000080200000FF200000004000004040000080400000FF400000006000004060000080600000FF600000008000004080000080800000FF80000000A0000040A000
310
0080A00000FFA0000000C0000040C0000080C00000FFC0000000FF000040FF000080FF0000FFFF0000000020004000200080002000FF002000002020004020200080202000FF202000004020004040200080402000FF402000006020004060200080602000FF602000008020004080200080802000FF80200000A0200040A0
310
200080A02000FFA0200000C0200040C0200080C02000FFC0200000FF200040FF200080FF2000FFFF2000000040004000400080004000FF004000002040004020400080204000FF204000004040004040400080404000FF404000006040004060400080604000FF604000008040004080400080804000FF80400000A0400040
310
A0400080A04000FFA0400000C0400040C0400080C04000FFC0400000FF400040FF400080FF4000FFFF4000000060004000600080006000FF006000002060004020600080206000FF206000004060004040600080406000FF406000006060004060600080606000FF606000008060004080600080806000FF80600000A06000
310
40A0600080A06000FFA0600000C0600040C0600080C06000FFC0600000FF600040FF600080FF6000FFFF6000000080004000800080008000FF008000002080004020800080208000FF208000004080004040800080408000FF408000006080004060800080608000FF608000008080004080800080808000FF80800000A080
310
0040A0800080A08000FFA0800000C0800040C0800080C08000FFC0800000FF800040FF800080FF8000FFFF80000000A0004000A0008000A000FF00A0000020A0004020A0008020A000FF20A0000040A0004040A0008040A000FF40A0000060A0004060A0008060A000FF60A0000080A0004080A0008080A000FF80A00000A0
310
A00040A0A00080A0A000FFA0A00000C0A00040C0A00080C0A000FFC0A00000FFA00040FFA00080FFA000FFFFA0000000C0004000C0008000C000FF00C0000020C0004020C0008020C000FF20C0000040C0004040C0008040C000FF40C0000060C0004060C0008060C000FF60C0000080C0004080C0008080C000FF80C00000
310
A0C00040A0C00080A0C000FFA0C00000C0C00040C0C00080C0C000FFC0C00000FFC00040FFC00080FFC000FFFFC0000000FF004000FF008000FF00FF00FF000020FF004020FF008020FF00FF20FF000040FF004040FF008040FF00FF40FF000060FF004060FF008060FF00FF60FF000080FF004080FF008080FF00FF80FF00
310
00A0FF0040A0FF0080A0FF00FFA0FF0000C0FF0040C0FF0080C0FF00FFC0FF0000FFFF0040FFFF0080FFFF00FFFFFF00FFFFFFFFFFFFFFFFFFFFFFFFFFFFFFFFFFFFFFFFFFFFFFFFFFFFFFFFFFFFFFFFFFFFFFFFFFFFFFFFFFFFFFFFFFFFFFFFFFFFFFFFFFFFFFFFFFFFFFFFFFFFFFFFFFFFFFFFFFFFFFFFFFFFFFFFFFFFFF
310
FFFFFFFFFFFFFFFFFFFFFFFFFFFFFFFFFFFFFFFFFFFFFFFFFFFFFFFFFFFFFFFFFFFFFFFFFFFFFFFFFFFFFFFFFFFFFFFFFFFFFFFFFFFFFFFFFFFFFFFFFFFFFFFFFFFFFFFFFFFFFFFFFFFFFFFFFFFFFFFFFFFFFFFFFFFFFFFFFFFFFFFFFFFFFFFFFFFFFFFFFFFFFFFFFFFFFFFFFFFFFFFFFFFFFFFFFFFFFFFFFFFFFFFFFFFFFF
310
FFFFFFFFFFFFFFFFFFFFFFFFFFFFFFFFFFFFFFFF0000000000000000FFFFFFFFFFFFFFFFFFFFFFFFFFFFFFFFFFFFFFFFFFFFFF0000FFFFFFFFFFFF00FFFFFFFFFFFFFFFFFFFFFFFFFFFFFFFFFFFFFFFFFFFFFF00FFFFFFFFFFFFFF00FFFFFFFFFFFFFFFFFFFFFFFFFFFFFFFFFFFFFFFFFFFFFF0000FFFFFFFFFFFF00000000
310
0000000000000000000000000000000000FFFFFF000000000000000000FFFFFFFFFFFFFFFFFF000000000000000000000000FFFF0000FFFFFFFFFFFF00FFFFFFFFFFFFFFFFFF00FFFFFFFFFFFFFFFFFF0000FFFF0000FFFFFFFFFFFF00FFFFFFFFFFFFFFFFFF00FFFFFFFFFFFFFFFFFF0000FFFF0000FFFFFFFFFFFF00FFFF
310
FFFFFFFFFFFFFF00FFFFFFFFFFFFFFFFFF0000FFFF00FFFFFFFFFFFFFF00FFFFFFFFFFFFFFFFFF00FFFFFFFFFFFFFFFFFF0000FFFF00FFFFFFFFFFFFFF00FFFFFFFFFFFFFFFFFF00FFFFFFFFFFFFFFFFFF0000FFFF0000FFFFFFFFFFFF00FFFFFFFFFFFFFFFFFF00FFFFFFFFFFFFFFFFFF0000FFFF0000FFFFFFFFFFFF00FF
310
FFFFFFFFFFFFFFFF00FFFFFFFFFFFFFFFFFF0000FFFF0000FFFFFFFFFFFF00FFFFFFFFFFFFFFFFFF00FFFFFFFFFFFFFFFFFF0000FFFF000000000000000000FFFFFFFFFFFFFFFFFF000000000000000000000000FFFF0000FFFFFFFFFFFF000000000000000000000000000000000000000000FFFFFF00FFFFFFFFFFFFFF00
310
FFFFFFFFFFFFFFFFFFFFFFFFFFFFFFFFFFFFFFFFFFFFFF0000FFFFFFFFFFFF00FFFFFFFFFFFFFFFFFFFFFFFFFFFFFFFFFFFFFFFFFFFFFFFF0000000000000000FFFFFFFFFFFFFFFFFFFFFFFFFFFFFFFFFFFFFFFFFFFFFFFFFFFFFFFFFFFFFFFFFFFFFFFFFFFFFFFFFFFFFFFFFFFFFFFFFFFFFFFFFFFFFFFFFFFFFFFFFFFFFF
310
FFFFFFFFFFFFFFFFFFFFFFFFFFFFFFFFFFFFFFFFFFFFFFFFFFFFFFFFFFFFFFFFFFFFFFFFFFFFFFFFFFFFFFFFFFFFFFFFFFFFFFFFFFFFFFFFFFFFFFFFFFFFFFFFFFFFFFFFFFFFFFFFFFFFFFFFFFFFFFFFFFFFFFFFFFFFFFFFFFFFFFFFFFFFFFFFFFFFFFFFFFFFFFFFFFFFFFFFFFFFFFFFFFFFFFFFFFFFFFFFFFFFFFFFFFFFFF
310
FFFFFFFFFFFFFFFFFFFFFFFFFFFFFFFFFFFFFFFFFFFFFFFFFFFFFFFFFFFFFFFFFFFFFFFFFFFFFFFFFFFFFFFFFFFFFFFFFFFFFFFFFFFFFFFF
 70
     0
280
     1
281
     0
  0
BLOCK_RECORD
  5
44C
330
1
100
AcDbSymbolTableRecord
100
AcDbBlockTableRecord
  2
A$C733C44AF
340
0
 70
     0
280
     1
281
     0
  0
BLOCK_RECORD
  5
473
330
1
100
AcDbSymbolTableRecord
100
AcDbBlockTableRecord
  2
0D5 Hex Nut Sv
340
0
310
28000000200000002000000001000800000000000004000000000000000000000000000000000000000000004000000080000000FF000000002000004020000080200000FF200000004000004040000080400000FF400000006000004060000080600000FF600000008000004080000080800000FF80000000A0000040A000
310
0080A00000FFA0000000C0000040C0000080C00000FFC0000000FF000040FF000080FF0000FFFF0000000020004000200080002000FF002000002020004020200080202000FF202000004020004040200080402000FF402000006020004060200080602000FF602000008020004080200080802000FF80200000A0200040A0
310
200080A02000FFA0200000C0200040C0200080C02000FFC0200000FF200040FF200080FF2000FFFF2000000040004000400080004000FF004000002040004020400080204000FF204000004040004040400080404000FF404000006040004060400080604000FF604000008040004080400080804000FF80400000A0400040
310
A0400080A04000FFA0400000C0400040C0400080C04000FFC0400000FF400040FF400080FF4000FFFF4000000060004000600080006000FF006000002060004020600080206000FF206000004060004040600080406000FF406000006060004060600080606000FF606000008060004080600080806000FF80600000A06000
310
40A0600080A06000FFA0600000C0600040C0600080C06000FFC0600000FF600040FF600080FF6000FFFF6000000080004000800080008000FF008000002080004020800080208000FF208000004080004040800080408000FF408000006080004060800080608000FF608000008080004080800080808000FF80800000A080
310
0040A0800080A08000FFA0800000C0800040C0800080C08000FFC0800000FF800040FF800080FF8000FFFF80000000A0004000A0008000A000FF00A0000020A0004020A0008020A000FF20A0000040A0004040A0008040A000FF40A0000060A0004060A0008060A000FF60A0000080A0004080A0008080A000FF80A00000A0
310
A00040A0A00080A0A000FFA0A00000C0A00040C0A00080C0A000FFC0A00000FFA00040FFA00080FFA000FFFFA0000000C0004000C0008000C000FF00C0000020C0004020C0008020C000FF20C0000040C0004040C0008040C000FF40C0000060C0004060C0008060C000FF60C0000080C0004080C0008080C000FF80C00000
310
A0C00040A0C00080A0C000FFA0C00000C0C00040C0C00080C0C000FFC0C00000FFC00040FFC00080FFC000FFFFC0000000FF004000FF008000FF00FF00FF000020FF004020FF008020FF00FF20FF000040FF004040FF008040FF00FF40FF000060FF004060FF008060FF00FF60FF000080FF004080FF008080FF00FF80FF00
310
00A0FF0040A0FF0080A0FF00FFA0FF0000C0FF0040C0FF0080C0FF00FFC0FF0000FFFF0040FFFF0080FFFF00FFFFFF00FFFFFFFFFFFFFFFFFFFFFFFFFFFFFFFFFFFFFFFFFFFFFFFFFFFFFFFFFFFFFFFFFFFFFFFFFFFFFFFFFF0000000000000000000000000000FFFFFFFFFFFFFFFFFFFFFFFFFFFFFFFFFFFF00FFFFFFFFFF
310
FFFFFFFFFFFFFF00FFFFFFFFFFFFFFFFFFFFFFFFFFFFFFFFFFFF00FFFFFFFFFFFFFFFFFFFFFFFF00FFFFFFFFFFFFFFFFFFFFFFFFFFFFFFFFFF00FFFFFFFFFFFFFFFFFFFFFFFFFFFF00FFFFFFFFFFFFFFFFFFFFFFFFFFFFFFFF00FFFFFFFFFFFFFFFFFFFFFFFFFFFF00FFFFFFFFFFFFFFFFFFFFFFFFFFFFFFFF00FFFFFFFFFF
310
FFFFFFFFFFFFFFFFFF00FFFFFFFFFFFFFFFFFFFFFFFFFFFFFFFF0000FFFFFFFFFFFFFFFFFFFFFFFF0000FFFFFFFFFFFFFFFFFFFFFFFFFFFFFFFF00000000000000000000000000000000FFFFFFFFFFFFFFFFFFFFFFFFFFFFFFFF0000FFFFFFFFFFFFFFFFFFFFFFFF0000FFFFFFFFFFFFFFFFFFFFFFFFFFFFFFFF0000FFFFFF
310
FFFFFFFFFFFFFFFFFF0000FFFFFFFFFFFFFFFFFFFFFFFFFFFFFFFF00FFFFFFFFFFFFFFFFFFFFFFFFFFFF00FFFFFFFFFFFFFFFFFFFFFFFFFFFFFFFF00FFFFFFFFFFFFFFFFFFFFFFFFFFFF00FFFFFFFFFFFFFFFFFFFFFFFFFFFFFFFF00FFFFFFFFFFFFFFFFFFFFFFFFFFFF00FFFFFFFFFFFFFFFFFFFFFFFFFFFFFFFF00FFFFFF
310
FFFFFFFFFFFFFFFFFFFFFF00FFFFFFFFFFFFFFFFFFFFFFFFFFFFFFFF00FFFFFFFFFFFFFFFFFFFFFFFFFFFF00FFFFFFFFFFFFFFFFFFFFFFFFFFFFFFFF00FFFFFFFFFFFFFFFFFFFFFFFFFFFF00FFFFFFFFFFFFFFFFFFFFFFFFFFFFFFFF00FFFFFFFFFFFFFFFFFFFFFFFFFFFF00FFFFFFFFFFFFFFFFFFFFFFFFFFFFFFFF00FFFF
310
FFFFFFFFFFFFFFFFFFFFFFFF00FFFFFFFFFFFFFFFFFFFFFFFFFFFFFFFF00FFFFFFFFFFFFFFFFFFFFFFFFFFFF00FFFFFFFFFFFFFFFFFFFFFFFFFFFFFFFF00FFFFFFFFFFFFFFFFFFFFFFFFFFFF00FFFFFFFFFFFFFFFFFFFFFFFFFFFFFFFF0000FFFFFFFFFFFFFFFFFFFFFFFF0000FFFFFFFFFFFFFFFFFFFFFFFFFFFFFFFF0000
310
FFFFFFFFFFFFFFFFFFFFFFFF0000FFFFFFFFFFFFFFFFFFFFFFFFFFFFFFFF00000000000000000000000000000000FFFFFFFFFFFFFFFFFFFFFFFFFFFFFFFF0000FFFFFFFFFFFFFFFFFFFFFFFF0000FFFFFFFFFFFFFFFFFFFFFFFFFFFFFFFF00FFFFFFFFFFFFFFFFFFFFFFFFFFFF00FFFFFFFFFFFFFFFFFFFFFFFFFFFFFFFF00
310
FFFFFFFFFFFFFFFFFFFFFFFFFFFF00FFFFFFFFFFFFFFFFFFFFFFFFFFFFFFFF00FFFFFFFFFFFFFFFFFFFFFFFFFFFF00FFFFFFFFFFFFFFFFFFFFFFFFFFFFFFFFFF00FFFFFFFFFFFFFFFFFFFFFFFF00FFFFFFFFFFFFFFFFFFFFFFFFFFFFFFFFFFFF00FFFFFFFFFFFFFFFFFFFFFFFF00FFFFFFFFFFFFFFFFFFFFFFFFFFFFFFFFFF
310
FF0000000000000000000000000000FFFFFFFFFFFFFFFFFFFFFFFFFFFFFFFFFFFFFFFFFFFFFFFFFFFFFFFFFFFFFFFFFFFFFFFFFFFFFFFFFF
 70
     0
280
     1
281
     0
  0
BLOCK_RECORD
  5
53B
330
1
100
AcDbSymbolTableRecord
100
AcDbBlockTableRecord
  2
REVDATE
340
0
310
28000000200000002000000001000800000000000004000000000000000000000000000000000000000000004000000080000000FF000000002000004020000080200000FF200000004000004040000080400000FF400000006000004060000080600000FF600000008000004080000080800000FF80000000A0000040A000
310
0080A00000FFA0000000C0000040C0000080C00000FFC0000000FF000040FF000080FF0000FFFF0000000020004000200080002000FF002000002020004020200080202000FF202000004020004040200080402000FF402000006020004060200080602000FF602000008020004080200080802000FF80200000A0200040A0
310
200080A02000FFA0200000C0200040C0200080C02000FFC0200000FF200040FF200080FF2000FFFF2000000040004000400080004000FF004000002040004020400080204000FF204000004040004040400080404000FF404000006040004060400080604000FF604000008040004080400080804000FF80400000A0400040
310
A0400080A04000FFA0400000C0400040C0400080C04000FFC0400000FF400040FF400080FF4000FFFF4000000060004000600080006000FF006000002060004020600080206000FF206000004060004040600080406000FF406000006060004060600080606000FF606000008060004080600080806000FF80600000A06000
310
40A0600080A06000FFA0600000C0600040C0600080C06000FFC0600000FF600040FF600080FF6000FFFF6000000080004000800080008000FF008000002080004020800080208000FF208000004080004040800080408000FF408000006080004060800080608000FF608000008080004080800080808000FF80800000A080
310
0040A0800080A08000FFA0800000C0800040C0800080C08000FFC0800000FF800040FF800080FF8000FFFF80000000A0004000A0008000A000FF00A0000020A0004020A0008020A000FF20A0000040A0004040A0008040A000FF40A0000060A0004060A0008060A000FF60A0000080A0004080A0008080A000FF80A00000A0
310
A00040A0A00080A0A000FFA0A00000C0A00040C0A00080C0A000FFC0A00000FFA00040FFA00080FFA000FFFFA0000000C0004000C0008000C000FF00C0000020C0004020C0008020C000FF20C0000040C0004040C0008040C000FF40C0000060C0004060C0008060C000FF60C0000080C0004080C0008080C000FF80C00000
310
A0C00040A0C00080A0C000FFA0C00000C0C00040C0C00080C0C000FFC0C00000FFC00040FFC00080FFC000FFFFC0000000FF004000FF008000FF00FF00FF000020FF004020FF008020FF00FF20FF000040FF004040FF008040FF00FF40FF000060FF004060FF008060FF00FF60FF000080FF004080FF008080FF00FF80FF00
310
00A0FF0040A0FF0080A0FF00FFA0FF0000C0FF0040C0FF0080C0FF00FFC0FF0000FFFF0040FFFF0080FFFF00FFFFFF0000000000000000000000000000000000000000000000000000000000000000000000000000000000000000000000000000000000000000000000000000000000000000000000000000000000000000
310
00000000000000000000000000000000000000000000000000000000000000000000000000000000000000000000000000000000000000000000000000000000000000000000000000000000000000000000000000000000000000000000000000000000000000000000000000000000000000000000000000000000000000
310
00000000000000000000000000000000000000000000000000000000000000000000000000000000000000000000000000000000000000000000000000000000000000000000000000000000000000000000000000000000000000000000000000000000000000000000000000000000000000000000000000000000000000
310
00000000000000000000000000000000000000000000000000000000000000000000000000000000000000000000000000000000000000000000000000000000000000000000000000000000000000000000000000000000000000000000000000000000000000000000000000000000000000000000000000000000000000
310
00000000000000000000000000000000000000000000FFFFFF00000000000000FFFFFFFFFFFF0000000000000000FFFFFFFFFF0000FFFFFFFF00000000000000FFFFFFFFFFFF0000000000000000FFFFFFFFFF0000000000000000000000000000000000000000000000000000000000000000000000000000000000000000
310
00000000000000000000000000000000000000000000000000000000000000000000000000000000000000000000000000000000000000000000000000000000000000000000000000000000000000000000000000000000000000000000000000000000000000000000000000000000000000000000000000000000000000
310
00000000000000000000000000000000000000000000000000000000000000000000000000000000000000000000000000000000000000000000000000000000000000000000000000000000000000000000000000000000000000000000000000000000000000000000000000000000000000000000000000000000000000
310
00000000000000000000000000000000000000000000000000000000000000000000000000000000000000000000000000000000000000000000000000000000000000000000000000000000000000000000000000000000000000000000000000000000000000000000000000000000000000000000000000000000000000
310
0000000000000000000000000000000000000000000000000000000000000000000000000000000000000000000000000000000000000000
 70
     1
280
     1
281
     0
1001
ACAD
1000
DesignCenter Data
1002
{
1070
     1
1070
     1
1002
}
  0
BLOCK_RECORD
  5
93C
330
1
100
AcDbSymbolTableRecord
100
AcDbBlockTableRecord
  2
1-1_2x0d200 Pipe End-V
340
0
310
28000000200000002000000001000800000000000004000000000000000000000000000000000000000000004000000080000000FF000000002000004020000080200000FF200000004000004040000080400000FF400000006000004060000080600000FF600000008000004080000080800000FF80000000A0000040A000
310
0080A00000FFA0000000C0000040C0000080C00000FFC0000000FF000040FF000080FF0000FFFF0000000020004000200080002000FF002000002020004020200080202000FF202000004020004040200080402000FF402000006020004060200080602000FF602000008020004080200080802000FF80200000A0200040A0
310
200080A02000FFA0200000C0200040C0200080C02000FFC0200000FF200040FF200080FF2000FFFF2000000040004000400080004000FF004000002040004020400080204000FF204000004040004040400080404000FF404000006040004060400080604000FF604000008040004080400080804000FF80400000A0400040
310
A0400080A04000FFA0400000C0400040C0400080C04000FFC0400000FF400040FF400080FF4000FFFF4000000060004000600080006000FF006000002060004020600080206000FF206000004060004040600080406000FF406000006060004060600080606000FF606000008060004080600080806000FF80600000A06000
310
40A0600080A06000FFA0600000C0600040C0600080C06000FFC0600000FF600040FF600080FF6000FFFF6000000080004000800080008000FF008000002080004020800080208000FF208000004080004040800080408000FF408000006080004060800080608000FF608000008080004080800080808000FF80800000A080
310
0040A0800080A08000FFA0800000C0800040C0800080C08000FFC0800000FF800040FF800080FF8000FFFF80000000A0004000A0008000A000FF00A0000020A0004020A0008020A000FF20A0000040A0004040A0008040A000FF40A0000060A0004060A0008060A000FF60A0000080A0004080A0008080A000FF80A00000A0
310
A00040A0A00080A0A000FFA0A00000C0A00040C0A00080C0A000FFC0A00000FFA00040FFA00080FFA000FFFFA0000000C0004000C0008000C000FF00C0000020C0004020C0008020C000FF20C0000040C0004040C0008040C000FF40C0000060C0004060C0008060C000FF60C0000080C0004080C0008080C000FF80C00000
310
A0C00040A0C00080A0C000FFA0C00000C0C00040C0C00080C0C000FFC0C00000FFC00040FFC00080FFC000FFFFC0000000FF004000FF008000FF00FF00FF000020FF004020FF008020FF00FF20FF000040FF004040FF008040FF00FF40FF000060FF004060FF008060FF00FF60FF000080FF004080FF008080FF00FF80FF00
310
00A0FF0040A0FF0080A0FF00FFA0FF0000C0FF0040C0FF0080C0FF00FFC0FF0000FFFF0040FFFF0080FFFF00FFFFFF00FFFFFFFFFFFFFFFFFFFFFFFFFFFFFFFFFFFFFFFFFFFFFFFFFFFFFFFFFFFFFFFFFFFFFFFFFFFFFFFFFFFFFFFFFFFFFF000000FFFFFFFFFFFFFFFFFFFFFFFFFFFFFFFFFFFFFFFFFFFFFFFF0000000000
310
FFFFFF0000FFFFFFFFFFFFFFFFFFFFFFFFFFFFFFFFFFFFFFFF0000FFFFFFFFFFFFFFFFFFFF000000FFFFFFFFFFFFFFFFFFFFFFFFFFFFFFFF00FFFFFFFFFFFF000000FFFFFFFFFFFF0000FFFFFFFFFFFFFFFFFFFFFFFFFF00FFFFFFFFFF0000FFFFFF00000000FFFFFFFF00FFFFFFFFFFFFFFFFFFFFFF00FFFFFFFF0000FFFF
310
FFFFFFFFFFFFFF0000FFFFFF00FFFFFFFFFFFFFFFFFF00FFFFFF0000FFFFFFFFFFFFFFFFFFFFFFFFFF00FFFFFF00FFFFFFFFFFFFFFFF00FFFFFF00FFFFFFFFFFFFFFFFFFFFFFFFFFFFFF00FFFF00FFFFFFFFFFFFFF00FFFFFF00FFFFFFFFFFFFFFFFFFFFFFFFFFFFFFFFFF00FFFF00FFFFFFFFFFFF00FFFF00FFFFFFFFFFFF
310
FFFFFFFFFFFFFFFFFFFFFFFFFF00FFFF00FFFFFFFF00FFFFFF00FFFFFFFFFFFFFFFFFFFFFFFFFFFFFFFFFFFFFF00FFFF00FFFFFFFF00FFFF00FFFFFFFFFFFFFFFFFFFFFFFFFFFFFFFFFFFFFFFF00FFFF00FFFFFFFF00FFFF00FFFFFFFFFFFFFFFFFFFFFFFFFFFFFFFFFFFFFFFF00FFFF00FFFFFF00FFFF00FFFFFFFFFFFFFF
310
FFFFFFFFFFFFFFFFFFFFFFFFFFFFFF00FFFF00FFFF00FFFF00FFFFFFFFFFFFFFFFFFFFFFFFFFFFFFFFFFFFFFFFFFFF00FFFF00FFFF00FFFF00FFFFFFFFFFFFFFFFFFFFFF00FFFFFFFFFFFFFFFFFFFF00FFFF00FFFF00FFFF00FFFFFFFFFFFFFFFFFFFFFFFFFFFFFFFFFFFFFFFFFFFF00FFFF00FFFFFF00FFFF00FFFFFFFFFF
310
FFFFFFFFFFFFFFFFFFFFFFFFFFFFFF00FFFF00FFFFFFFF00FFFF00FFFFFFFFFFFFFFFFFFFFFFFFFFFFFFFFFFFFFFFF00FFFF00FFFFFFFF00FFFFFF00FFFFFFFFFFFFFFFFFFFFFFFFFFFFFFFFFFFFFF00FFFF00FFFFFFFFFF00FFFF00FFFFFFFFFFFFFFFFFFFFFFFFFFFFFFFFFFFFFF00FFFF00FFFFFFFFFF00FFFFFF00FFFF
310
FFFFFFFFFFFFFFFFFFFFFFFFFFFFFF00FFFF00FFFFFFFFFFFFFF00FFFFFF00FFFFFFFFFFFFFFFFFFFFFFFFFFFFFF00FFFF00FFFFFFFFFFFFFFFF00FFFFFF00FFFFFFFFFFFFFFFFFFFFFFFFFFFF00FFFFFF00FFFFFFFFFFFFFFFFFF00FFFFFF0000FFFFFFFFFFFFFFFFFFFFFF00FFFFFF00FFFFFFFFFFFFFFFFFFFFFF00FFFF
310
FFFF0000FFFFFFFFFF00000000FFFFFF00FFFFFFFFFFFFFFFFFFFFFFFFFF00FFFFFFFFFF0000000000FFFFFFFFFF0000FFFFFFFFFFFFFFFFFFFFFFFFFFFFFF0000FFFFFFFFFFFFFFFFFFFFFF0000FFFFFFFFFFFFFFFFFFFFFFFFFFFFFFFFFFFFFF0000000000FFFFFF000000FFFFFFFFFFFFFFFFFFFFFFFFFFFFFFFFFFFFFF
310
FFFFFFFFFFFFFF000000FFFFFFFFFFFFFFFFFFFFFFFFFFFFFFFFFFFFFFFFFFFFFFFFFFFFFFFFFFFFFFFFFFFFFFFFFFFFFFFFFFFFFFFFFFFF
 70
     0
280
     1
281
     0
  0
BLOCK_RECORD
  5
942
330
1
100
AcDbSymbolTableRecord
100
AcDbBlockTableRecord
  2
2x2x3_16 Tube End-V
340
0
310
28000000200000002000000001000800000000000004000000000000000000000000000000000000000000004000000080000000FF000000002000004020000080200000FF200000004000004040000080400000FF400000006000004060000080600000FF600000008000004080000080800000FF80000000A0000040A000
310
0080A00000FFA0000000C0000040C0000080C00000FFC0000000FF000040FF000080FF0000FFFF0000000020004000200080002000FF002000002020004020200080202000FF202000004020004040200080402000FF402000006020004060200080602000FF602000008020004080200080802000FF80200000A0200040A0
310
200080A02000FFA0200000C0200040C0200080C02000FFC0200000FF200040FF200080FF2000FFFF2000000040004000400080004000FF004000002040004020400080204000FF204000004040004040400080404000FF404000006040004060400080604000FF604000008040004080400080804000FF80400000A0400040
310
A0400080A04000FFA0400000C0400040C0400080C04000FFC0400000FF400040FF400080FF4000FFFF4000000060004000600080006000FF006000002060004020600080206000FF206000004060004040600080406000FF406000006060004060600080606000FF606000008060004080600080806000FF80600000A06000
310
40A0600080A06000FFA0600000C0600040C0600080C06000FFC0600000FF600040FF600080FF6000FFFF6000000080004000800080008000FF008000002080004020800080208000FF208000004080004040800080408000FF408000006080004060800080608000FF608000008080004080800080808000FF80800000A080
310
0040A0800080A08000FFA0800000C0800040C0800080C08000FFC0800000FF800040FF800080FF8000FFFF80000000A0004000A0008000A000FF00A0000020A0004020A0008020A000FF20A0000040A0004040A0008040A000FF40A0000060A0004060A0008060A000FF60A0000080A0004080A0008080A000FF80A00000A0
310
A00040A0A00080A0A000FFA0A00000C0A00040C0A00080C0A000FFC0A00000FFA00040FFA00080FFA000FFFFA0000000C0004000C0008000C000FF00C0000020C0004020C0008020C000FF20C0000040C0004040C0008040C000FF40C0000060C0004060C0008060C000FF60C0000080C0004080C0008080C000FF80C00000
310
A0C00040A0C00080A0C000FFA0C00000C0C00040C0C00080C0C000FFC0C00000FFC00040FFC00080FFC000FFFFC0000000FF004000FF008000FF00FF00FF000020FF004020FF008020FF00FF20FF000040FF004040FF008040FF00FF40FF000060FF004060FF008060FF00FF60FF000080FF004080FF008080FF00FF80FF00
310
00A0FF0040A0FF0080A0FF00FFA0FF0000C0FF0040C0FF0080C0FF00FFC0FF0000FFFF0040FFFF0080FFFF00FFFFFF00FFFFFFFFFFFFFFFFFFFFFFFFFFFFFFFFFFFFFFFFFFFFFFFFFFFFFFFFFFFFFFFFFFFFFFFFFFFF0000000000000000000000000000000000000000FFFFFFFFFFFFFFFFFFFF0000FFFFFFFFFFFFFFFFFF
310
FFFFFFFFFFFFFFFFFFFFFF0000FFFFFFFFFFFFFF00FFFFFFFFFFFFFFFFFFFFFFFFFFFFFFFFFFFFFFFFFFFFFFFF00FFFFFFFFFF00FFFF00000000000000000000000000000000000000000000FFFF00FFFFFFFF00FF0000FFFFFFFFFFFFFFFFFFFFFFFFFFFFFFFFFFFFFFFF0000FF00FFFFFF00FFFF00FFFFFFFFFFFFFFFFFF
310
FFFFFFFFFFFFFFFFFFFFFFFFFF00FFFF00FFFF00FFFF00FFFFFFFFFFFFFFFFFFFFFFFFFFFFFFFFFFFFFFFFFFFF00FFFF00FFFF00FFFF00FFFFFFFFFFFFFFFFFFFFFFFFFFFFFFFFFFFFFFFFFFFF00FFFF00FFFF00FFFF00FFFFFFFFFFFFFFFFFFFFFFFFFFFFFFFFFFFFFFFFFFFF00FFFF00FFFF00FFFF00FFFFFFFFFFFFFFFF
310
FFFFFFFFFFFFFFFFFFFFFFFFFFFF00FFFF00FFFF00FFFF00FFFFFFFFFFFFFFFFFFFFFFFFFFFFFFFFFFFFFFFFFFFF00FFFF00FFFF00FFFF00FFFFFFFFFFFFFFFFFFFFFFFFFFFFFFFFFFFFFFFFFFFF00FFFF00FFFF00FFFF00FFFFFFFFFFFFFFFFFFFFFFFFFFFFFFFFFFFFFFFFFFFF00FFFF00FFFF00FFFF00FFFFFFFFFFFFFF
310
FFFFFFFFFFFFFFFFFFFFFFFFFFFFFF00FFFF00FFFF00FFFF00FFFFFFFFFFFFFFFFFFFFFFFFFFFFFFFFFFFFFFFFFFFF00FFFF00FFFF00FFFF00FFFFFFFFFFFFFFFFFFFFFFFFFFFFFFFFFFFFFFFFFFFF00FFFF00FFFF00FFFF00FFFFFFFFFFFFFFFFFFFFFFFFFFFFFFFFFFFFFFFFFFFF00FFFF00FFFF00FFFF00FFFFFFFFFFFF
310
FFFFFFFFFFFFFFFFFFFFFFFFFFFFFFFF00FFFF00FFFF00FFFF00FFFFFFFFFFFFFFFFFFFFFFFFFFFFFFFFFFFFFFFFFFFF00FFFF00FFFF00FFFF00FFFFFFFFFFFFFFFFFFFFFFFFFFFFFFFFFFFFFFFFFFFF00FFFF00FFFF00FFFF00FFFFFFFFFFFFFFFFFFFFFFFFFFFFFFFFFFFFFFFFFFFF00FFFF00FFFF00FFFF00FFFFFFFFFF
310
FFFFFFFFFFFFFFFFFFFFFFFFFFFFFFFFFF00FFFF00FFFF00FFFF00FFFFFFFFFFFFFFFFFFFFFFFFFFFFFFFFFFFFFFFFFFFF00FFFF00FFFF00FFFF00FFFFFFFFFFFFFFFFFFFFFFFFFFFFFFFFFFFFFFFFFFFF00FFFF00FFFF00FFFF00FFFFFFFFFFFFFFFFFFFFFFFFFFFFFFFFFFFFFFFFFFFF00FFFF00FFFFFF00FF0000FFFFFF
310
FFFFFFFFFFFFFFFFFFFFFFFFFFFFFFFFFF0000FF00FFFFFFFF00FFFF00000000000000000000000000000000000000000000FFFF00FFFFFFFFFF00FFFFFFFFFFFFFFFFFFFFFFFFFFFFFFFFFFFFFFFFFFFFFFFF00FFFFFFFFFFFFFF0000FFFFFFFFFFFFFFFFFFFFFFFFFFFFFFFFFFFFFFFF0000FFFFFFFFFFFFFFFFFFFF0000
310
000000000000000000000000000000000000FFFFFFFFFFFFFFFFFFFFFFFFFFFFFFFFFFFFFFFFFFFFFFFFFFFFFFFFFFFFFFFFFFFFFFFFFFFF
 70
     0
280
     1
281
     0
  0
ENDTAB
  0
ENDSEC
  0
SECTION
  2
BLOCKS
  0
BLOCK
  5
20
330
1F
100
AcDbEntity
  8
0
100
AcDbBlockBegin
  2
*Model_Space
 70
     0
 10
0.0
 20
0.0
 30
0.0
  3
*Model_Space
  1

  0
ENDBLK
  5
21
330
1F
100
AcDbEntity
  8
0
100
AcDbBlockEnd
  0
BLOCK
  5
A7C
330
A7A
100
AcDbEntity
 67
     1
  8
0
100
AcDbBlockBegin
  2
*Paper_Space
 70
     0
 10
0.0
 20
0.0
 30
0.0
  3
*Paper_Space
  1

  0
ENDBLK
  5
A7D
330
A7A
100
AcDbEntity
 67
     1
  8
0
100
AcDbBlockEnd
  0
BLOCK
  5
2D8
330
266
100
AcDbEntity
  8
0
370
    -1
100
AcDbBlockBegin
  2
ISO A4 title block (portrait)
 70
     2
 10
0.0
 20
0.0
 30
0.0
  3
ISO A4 title block (portrait)
  1

  4
ISO A4 title block (portrait) and attributes
  0
LINE
  5
267
330
266
100
AcDbEntity
  8
FRAME 070
100
AcDbLine
 10
200.0
 20
10.0
 30
0.0
 11
200.0
 21
287.0
 31
0.0
  0
LINE
  5
268
330
266
100
AcDbEntity
  8
FRAME 070
100
AcDbLine
 10
10.0
 20
287.0
 30
0.0
 11
10.0
 21
10.0
 31
0.0
  0
LINE
  5
269
330
266
100
AcDbEntity
  8
FRAME 050
100
AcDbLine
 10
12.5
 20
151.0
 30
0.0
 11
12.5
 21
146.0
 31
0.0
  0
LINE
  5
26A
330
266
100
AcDbEntity
  8
FRAME 050
100
AcDbLine
 10
7.5
 20
148.5
 30
0.0
 11
12.5
 21
151.0
 31
0.0
  0
LINE
  5
26B
330
266
100
AcDbEntity
  8
FRAME 070
100
AcDbLine
 10
10.0
 20
10.0
 30
0.0
 11
200.0
 21
10.0
 31
0.0
  0
LINE
  5
26C
330
266
100
AcDbEntity
  8
FRAME 050
100
AcDbLine
 10
55.0
 20
5.0
 30
0.0
 11
155.0
 21
5.0
 31
0.0
  0
LINE
  5
26D
330
266
100
AcDbEntity
  8
FRAME 070
100
AcDbLine
 10
30.0
 20
30.0
 30
0.0
 11
200.0
 21
30.0
 31
0.0
  0
LINE
  5
26E
330
266
100
AcDbEntity
  8
FRAME 070
100
AcDbLine
 10
30.0
 20
40.0
 30
0.0
 11
200.0
 21
40.0
 31
0.0
  0
LINE
  5
26F
330
266
100
AcDbEntity
  8
FRAME 070
100
AcDbLine
 10
30.0
 20
46.0
 30
0.0
 11
200.0
 21
46.0
 31
0.0
  0
TEXT
  5
270
330
266
100
AcDbEntity
  8
FRAME 025
100
AcDbText
 10
64.0
 20
35.75
 30
0.0
 40
2.5
  1
Checked by
  7
ISO Proportional
 11
64.0
 21
37.0
 31
0.0
100
AcDbText
 73
     2
  0
TEXT
  5
271
330
266
100
AcDbEntity
  8
FRAME 025
100
AcDbText
 10
64.0
 20
41.75
 30
0.0
 40
2.5
  1
Title/Name, designation, material, dimension etc
  7
ISO Proportional
 11
64.0
 21
43.0
 31
0.0
100
AcDbText
 73
     2
  0
ATTDEF
  5
272
330
266
100
AcDbEntity
  8
FRAME 025
100
AcDbText
 10
64.0
 20
31.75
 30
0.0
 40
2.5
  1
XXX
  7
ISO Proportional
 11
64.0
 21
33.0
 31
0.0
100
AcDbAttributeDefinition
  3
Checked by
  2
CHECKED_BY
 70
     8
 74
     2
280
     0
 71
     1
 72
     0
 11
64.0
 21
33.0
 31
0.0
  0
LINE
  5
273
330
266
100
AcDbEntity
  8
FRAME 200
100
AcDbLine
 10
0.0
 20
0.0
 30
0.0
 11
0.0
 21
10.0
 31
0.0
  0
LINE
  5
274
330
266
100
AcDbEntity
  8
FRAME 200
100
AcDbLine
 10
0.0
 20
0.0
 30
0.0
 11
10.0
 21
0.0
 31
0.0
  0
TEXT
  5
275
330
266
100
AcDbEntity
  8
FRAME 050
100
AcDbText
 10
6.1
 20
31.5
 30
0.0
 40
4.0
  1
F
  7
ISO Proportional
 72
     4
 11
7.5
 21
33.5
 31
0.0
100
AcDbText
  0
LINE
  5
276
330
266
100
AcDbEntity
  8
FRAME 050
100
AcDbLine
 10
55.0
 20
5.0
 30
0.0
 11
55.0
 21
10.0
 31
0.0
  0
LINE
  5
277
330
266
100
AcDbEntity
  8
FRAME 050
100
AcDbLine
 10
65.0
 20
5.0
 30
0.0
 11
65.0
 21
10.0
 31
0.0
  0
LINE
  5
278
330
266
100
AcDbEntity
  8
FRAME 050
100
AcDbLine
 10
75.0
 20
5.0
 30
0.0
 11
75.0
 21
10.0
 31
0.0
  0
TEXT
  5
279
330
266
100
AcDbEntity
  8
FRAME 050
100
AcDbText
 10
32.75
 20
5.5
 30
0.0
 40
4.0
  1
1
  7
ISO Proportional
 72
     4
 11
33.75
 21
7.5
 31
0.0
100
AcDbText
  0
TEXT
  5
27A
330
266
100
AcDbEntity
  8
FRAME 025
100
AcDbText
 10
32.0
 20
35.75
 30
0.0
 40
2.5
  1
Designed by
  7
ISO Proportional
 11
32.0
 21
37.0
 31
0.0
100
AcDbText
 73
     2
  0
ATTDEF
  5
27B
330
266
100
AcDbEntity
  8
FRAME 025
100
AcDbText
 10
32.0
 20
31.75
 30
0.0
 40
2.5
  1
XXX
  7
ISO Proportional
 11
32.0
 21
33.0
 31
0.0
100
AcDbAttributeDefinition
  3
Designed by
  2
DESIGNED_BY
 70
     8
 74
     2
280
     0
 71
     1
 72
     0
 11
32.0
 21
33.0
 31
0.0
  0
LINE
  5
27C
330
266
100
AcDbEntity
  8
FRAME 070
100
AcDbLine
 10
30.0
 20
10.0
 30
0.0
 11
30.0
 21
40.0
 31
0.0
  0
LINE
  5
27D
330
266
100
AcDbEntity
  8
FRAME 070
100
AcDbLine
 10
45.0
 20
40.0
 30
0.0
 11
45.0
 21
46.0
 31
0.0
  0
LINE
  5
27E
330
266
100
AcDbEntity
  8
FRAME 070
100
AcDbLine
 10
30.0
 20
40.0
 30
0.0
 11
30.0
 21
46.0
 31
0.0
  0
TEXT
  5
27F
330
266
100
AcDbEntity
  8
FRAME 025
100
AcDbText
 10
32.0
 20
41.75
 30
0.0
 40
2.5
  1
Itemref
  7
ISO Proportional
 11
32.0
 21
43.0
 31
0.0
100
AcDbText
 73
     2
  0
LINE
  5
280
330
266
100
AcDbEntity
  8
FRAME 070
100
AcDbLine
 10
62.0
 20
30.0
 30
0.0
 11
62.0
 21
40.0
 31
0.0
  0
ATTDEF
  5
281
330
266
100
AcDbEntity
  8
FRAME 050
100
AcDbText
 10
60.75
 20
17.5
 30
0.0
 40
5.0
  1
XXX
  7
ISO Proportional
 72
     4
 11
67.5
 21
20.0
 31
0.0
100
AcDbAttributeDefinition
  3
Owner
  2
OWNER
 70
     8
280
     0
 71
     1
 72
     0
 11
67.5
 21
20.0
 31
0.0
  0
LINE
  5
282
330
266
100
AcDbEntity
  8
FRAME 070
100
AcDbLine
 10
62.0
 20
40.0
 30
0.0
 11
62.0
 21
46.0
 31
0.0
  0
TEXT
  5
283
330
266
100
AcDbEntity
  8
FRAME 025
100
AcDbText
 10
47.0
 20
41.75
 30
0.0
 40
2.5
  1
Quantity
  7
ISO Proportional
 11
47.0
 21
43.0
 31
0.0
100
AcDbText
 73
     2
  0
LINE
  5
284
330
266
100
AcDbEntity
  8
FRAME 050
100
AcDbLine
 10
5.0
 20
148.5
 30
0.0
 11
15.0
 21
148.5
 31
0.0
  0
TEXT
  5
285
330
266
100
AcDbEntity
  8
FRAME 050
100
AcDbText
 10
6.1
 20
77.5
 30
0.0
 40
4.0
  1
E
  7
ISO Proportional
 72
     4
 11
7.5
 21
79.5
 31
0.0
100
AcDbText
  0
LINE
  5
286
330
266
100
AcDbEntity
  8
FRAME 050
100
AcDbLine
 10
10.0
 20
56.5
 30
0.0
 11
5.0
 21
56.5
 31
0.0
  0
TEXT
  5
287
330
266
100
AcDbEntity
  8
FRAME 050
100
AcDbText
 10
5.786091270347399
 20
123.5
 30
0.0
 40
4.0
  1
D
  7
ISO Proportional
 72
     4
 11
7.5
 21
125.5
 31
0.0
100
AcDbText
  0
LINE
  5
288
330
266
100
AcDbEntity
  8
FRAME 050
100
AcDbLine
 10
10.0
 20
102.5
 30
0.0
 11
5.0
 21
102.5
 31
0.0
  0
LINE
  5
289
330
266
100
AcDbEntity
  8
FRAME 050
100
AcDbLine
 10
12.5
 20
146.0
 30
0.0
 11
7.5
 21
148.5
 31
0.0
  0
LINE
  5
28A
330
266
100
AcDbEntity
  8
FRAME 070
100
AcDbLine
 10
105.0
 20
20.0
 30
0.0
 11
200.0
 21
20.0
 31
0.0
  0
ATTDEF
  5
28B
330
266
100
AcDbEntity
  8
FRAME 050
100
AcDbText
 10
133.65
 20
13.5
 30
0.0
 40
3.0
  1
X
  7
ISO Proportional
 72
     4
 11
135.0
 21
15.0
 31
0.0
100
AcDbAttributeDefinition
  3
Drawing number
  2
DRAWING_NUMBER
 70
     8
280
     0
 71
     1
 72
     0
 11
135.0
 21
15.0
 31
0.0
  0
LINE
  5
28C
330
266
100
AcDbEntity
  8
FRAME 050
100
AcDbLine
 10
105.0
 20
10.0
 30
0.0
 11
105.0
 21
5.0
 31
0.0
  0
LINE
  5
28D
330
266
100
AcDbEntity
  8
FRAME 050
100
AcDbLine
 10
85.0
 20
5.0
 30
0.0
 11
85.0
 21
10.0
 31
0.0
  0
LINE
  5
28E
330
266
100
AcDbEntity
  8
FRAME 050
100
AcDbLine
 10
95.0
 20
5.0
 30
0.0
 11
95.0
 21
10.0
 31
0.0
  0
LINE
  5
28F
330
266
100
AcDbEntity
  8
FRAME 050
100
AcDbLine
 10
115.0
 20
5.0
 30
0.0
 11
115.0
 21
10.0
 31
0.0
  0
LINE
  5
290
330
266
100
AcDbEntity
  8
FRAME 050
100
AcDbLine
 10
125.0
 20
5.0
 30
0.0
 11
125.0
 21
10.0
 31
0.0
  0
LINE
  5
291
330
266
100
AcDbEntity
  8
FRAME 050
100
AcDbLine
 10
135.0
 20
5.0
 30
0.0
 11
135.0
 21
10.0
 31
0.0
  0
LINE
  5
292
330
266
100
AcDbEntity
  8
FRAME 050
100
AcDbLine
 10
105.0
 20
7.5
 30
0.0
 11
102.5
 21
12.5
 31
0.0
  0
LINE
  5
293
330
266
100
AcDbEntity
  8
FRAME 050
100
AcDbLine
 10
107.5
 20
12.5
 30
0.0
 11
105.0
 21
7.5
 31
0.0
  0
TEXT
  5
294
330
266
100
AcDbEntity
  8
FRAME 025
100
AcDbText
 10
89.0
 20
35.75
 30
0.0
 40
2.5
  1
Approved by - date
  7
ISO Proportional
 11
89.0
 21
37.0
 31
0.0
100
AcDbText
 73
     2
  0
ATTDEF
  5
295
330
266
100
AcDbEntity
  8
FRAME 025
100
AcDbText
 10
89.0
 20
31.75
 30
0.0
 40
2.5
  1
XXX - 00/00/00
  7
ISO Proportional
 11
89.0
 21
33.0
 31
0.0
100
AcDbAttributeDefinition
  3
Approved by - Date
  2
APPROVED_BY_DATE
 70
     8
 74
     2
280
     0
 71
     1
 72
     0
 11
89.0
 21
33.0
 31
0.0
  0
LINE
  5
296
330
266
100
AcDbEntity
  8
FRAME 070
100
AcDbLine
 10
87.0
 20
30.0
 30
0.0
 11
87.0
 21
40.0
 31
0.0
  0
LINE
  5
297
330
266
100
AcDbEntity
  8
FRAME 070
100
AcDbLine
 10
105.0
 20
10.0
 30
0.0
 11
105.0
 21
30.0
 31
0.0
  0
LINE
  5
298
330
266
100
AcDbEntity
  8
FRAME 050
100
AcDbLine
 10
102.5
 20
12.5
 30
0.0
 11
107.5
 21
12.5
 31
0.0
  0
LINE
  5
299
330
266
100
AcDbEntity
  8
FRAME 050
100
AcDbLine
 10
105.0
 20
10.0
 30
0.0
 11
105.0
 21
15.0
 31
0.0
  0
ATTDEF
  5
29A
330
266
100
AcDbEntity
  8
FRAME 025
100
AcDbText
 10
127.0
 20
31.75
 30
0.0
 40
2.5
  1
XXX
  7
ISO Proportional
 11
127.0
 21
33.0
 31
0.0
100
AcDbAttributeDefinition
  3
File name
  2
FILENAME
 70
     8
 74
     2
280
     0
 71
     1
 72
     0
 11
127.0
 21
33.0
 31
0.0
  0
LINE
  5
29B
330
266
100
AcDbEntity
  8
FRAME 070
100
AcDbLine
 10
125.0
 20
30.0
 30
0.0
 11
125.0
 21
40.0
 31
0.0
  0
TEXT
  5
29C
330
266
100
AcDbEntity
  8
FRAME 025
100
AcDbText
 10
127.0
 20
35.75
 30
0.0
 40
2.5
  1
File name
  7
ISO Proportional
 11
127.0
 21
37.0
 31
0.0
100
AcDbText
 73
     2
  0
LINE
  5
29D
330
266
100
AcDbEntity
  8
FRAME 200
100
AcDbLine
 10
210.0
 20
0.0
 30
0.0
 11
210.0
 21
10.0
 31
0.0
  0
LINE
  5
29E
330
266
100
AcDbEntity
  8
FRAME 050
100
AcDbLine
 10
155.0
 20
5.0
 30
0.0
 11
155.0
 21
10.0
 31
0.0
  0
LINE
  5
29F
330
266
100
AcDbEntity
  8
FRAME 050
100
AcDbLine
 10
145.0
 20
5.0
 30
0.0
 11
145.0
 21
10.0
 31
0.0
  0
TEXT
  5
2A0
330
266
100
AcDbEntity
  8
FRAME 050
100
AcDbText
 10
174.65
 20
5.5
 30
0.0
 40
4.0
  1
4
  7
ISO Proportional
 72
     4
 11
176.25
 21
7.5
 31
0.0
100
AcDbText
  0
LINE
  5
2A1
330
266
100
AcDbEntity
  8
FRAME 200
100
AcDbLine
 10
210.0
 20
0.0
 30
0.0
 11
200.0
 21
0.0
 31
0.0
  0
TEXT
  5
2A2
330
266
100
AcDbEntity
  8
FRAME 025
100
AcDbText
 10
152.0
 20
41.75
 30
0.0
 40
2.5
  1
Article No./Reference
  7
ISO Proportional
 11
152.0
 21
43.0
 31
0.0
100
AcDbText
 73
     2
  0
ATTDEF
  5
2A3
330
266
100
AcDbEntity
  8
FRAME 025
100
AcDbText
 10
167.0
 20
11.75
 30
0.0
 40
2.5
  1
0
  7
ISO Proportional
 11
167.0
 21
13.0
 31
0.0
100
AcDbAttributeDefinition
  3
Edition
  2
EDITION
 70
     8
 74
     2
280
     0
 71
     1
 72
     0
 11
167.0
 21
13.0
 31
0.0
  0
LINE
  5
2A4
330
266
100
AcDbEntity
  8
FRAME 070
100
AcDbLine
 10
150.0
 20
30.0
 30
0.0
 11
150.0
 21
40.0
 31
0.0
  0
ATTDEF
  5
2A5
330
266
100
AcDbEntity
  8
FRAME 025
100
AcDbText
 10
152.0
 20
31.75
 30
0.0
 40
2.5
  1
00/00/00
  7
ISO Proportional
 11
152.0
 21
33.0
 31
0.0
100
AcDbAttributeDefinition
  3
Date
  2
DATE
 70
     8
 74
     2
280
     0
 71
     1
 72
     0
 11
152.0
 21
33.0
 31
0.0
  0
ATTDEF
  5
2A6
330
266
100
AcDbEntity
  8
FRAME 050
100
AcDbText
 10
145.75
 20
22.5
 30
0.0
 40
5.0
  1
XXX
  7
ISO Proportional
 72
     4
 11
152.5
 21
25.0
 31
0.0
100
AcDbAttributeDefinition
  3
Title / Name
  2
TITLE
 70
     8
280
     0
 71
     1
 72
     0
 11
152.5
 21
25.0
 31
0.0
  0
TEXT
  5
2A7
330
266
100
AcDbEntity
  8
FRAME 025
100
AcDbText
 10
167.0
 20
15.75
 30
0.0
 40
2.5
  1
Edition
  7
ISO Proportional
 11
167.0
 21
17.0
 31
0.0
100
AcDbText
 73
     2
  0
LINE
  5
2A8
330
266
100
AcDbEntity
  8
FRAME 070
100
AcDbLine
 10
165.0
 20
10.0
 30
0.0
 11
165.0
 21
20.0
 31
0.0
  0
LINE
  5
2A9
330
266
100
AcDbEntity
  8
FRAME 070
100
AcDbLine
 10
150.0
 20
40.0
 30
0.0
 11
150.0
 21
46.0
 31
0.0
  0
TEXT
  5
2AA
330
266
100
AcDbEntity
  8
FRAME 025
100
AcDbText
 10
152.0
 20
35.75
 30
0.0
 40
2.5
  1
Date
  7
ISO Proportional
 11
152.0
 21
37.0
 31
0.0
100
AcDbText
 73
     2
  0
TEXT
  5
2AB
330
266
100
AcDbEntity
  8
FRAME 050
100
AcDbText
 10
201.1
 20
31.5
 30
0.0
 40
4.0
  1
F
  7
ISO Proportional
 72
     4
 11
202.5
 21
33.5
 31
0.0
100
AcDbText
  0
LINE
  5
2AC
330
266
100
AcDbEntity
  8
FRAME 070
100
AcDbLine
 10
180.0
 20
30.0
 30
0.0
 11
180.0
 21
40.0
 31
0.0
  0
ATTDEF
  5
2AD
330
266
100
AcDbEntity
  8
FRAME 025
100
AcDbText
 10
182.0
 20
31.75
 30
0.0
 40
2.5
  1
1:1
  7
ISO Proportional
 11
182.0
 21
33.0
 31
0.0
100
AcDbAttributeDefinition
  3
Scale
  2
SCALE
 70
     8
 74
     2
280
     0
 71
     1
 72
     0
 11
182.0
 21
33.0
 31
0.0
  0
TEXT
  5
2AE
330
266
100
AcDbEntity
  8
FRAME 025
100
AcDbText
 10
182.0
 20
15.75
 30
0.0
 40
2.5
  1
Sheet
  7
ISO Proportional
 11
182.0
 21
17.0
 31
0.0
100
AcDbText
 73
     2
  0
ATTDEF
  5
2AF
330
266
100
AcDbEntity
  8
FRAME 025
100
AcDbText
 10
182.0
 20
11.75
 30
0.0
 40
2.5
  1
1/1
  7
ISO Proportional
 11
182.0
 21
13.0
 31
0.0
100
AcDbAttributeDefinition
  3
Sheet
  2
SHEET
 70
     8
 74
     2
280
     0
 71
     1
 72
     0
 11
182.0
 21
13.0
 31
0.0
  0
LINE
  5
2B0
330
266
100
AcDbEntity
  8
FRAME 070
100
AcDbLine
 10
180.0
 20
10.0
 30
0.0
 11
180.0
 21
20.0
 31
0.0
  0
TEXT
  5
2B1
330
266
100
AcDbEntity
  8
FRAME 025
100
AcDbText
 10
182.0
 20
35.75
 30
0.0
 40
2.5
  1
Scale
  7
ISO Proportional
 11
182.0
 21
37.0
 31
0.0
100
AcDbText
 73
     2
  0
TEXT
  5
2B2
330
266
100
AcDbEntity
  8
FRAME 050
100
AcDbText
 10
201.1
 20
77.5
 30
0.0
 40
4.0
  1
E
  7
ISO Proportional
 72
     4
 11
202.5
 21
79.5
 31
0.0
100
AcDbText
  0
LINE
  5
2B3
330
266
100
AcDbEntity
  8
FRAME 050
100
AcDbLine
 10
205.0
 20
56.5
 30
0.0
 11
200.0
 21
56.5
 31
0.0
  0
TEXT
  5
2B4
330
266
100
AcDbEntity
  8
FRAME 050
100
AcDbText
 10
200.7860912703474
 20
123.5
 30
0.0
 40
4.0
  1
D
  7
ISO Proportional
 72
     4
 11
202.5
 21
125.5
 31
0.0
100
AcDbText
  0
LINE
  5
2B5
330
266
100
AcDbEntity
  8
FRAME 050
100
AcDbLine
 10
205.0
 20
102.5
 30
0.0
 11
200.0
 21
102.5
 31
0.0
  0
LINE
  5
2B6
330
266
100
AcDbEntity
  8
FRAME 050
100
AcDbLine
 10
195.0
 20
148.5
 30
0.0
 11
205.0
 21
148.5
 31
0.0
  0
LINE
  5
2B7
330
266
100
AcDbEntity
  8
FRAME 070
100
AcDbLine
 10
200.0
 20
287.0
 30
0.0
 11
10.0
 21
287.0
 31
0.0
  0
LINE
  5
2B8
330
266
100
AcDbEntity
  8
FRAME 070
100
AcDbLine
 10
30.0
 20
281.0
 30
0.0
 11
200.0
 21
281.0
 31
0.0
  0
TEXT
  5
2B9
330
266
100
AcDbEntity
  8
FRAME 050
100
AcDbText
 10
6.193198051533948
 20
169.5
 30
0.0
 40
4.0
  1
C
  7
ISO Proportional
 72
     4
 11
7.5
 21
171.5
 31
0.0
100
AcDbText
  0
LINE
  5
2BA
330
266
100
AcDbEntity
  8
FRAME 050
100
AcDbLine
 10
10.0
 20
194.5
 30
0.0
 11
5.0
 21
194.5
 31
0.0
  0
TEXT
  5
2BB
330
266
100
AcDbEntity
  8
FRAME 050
100
AcDbText
 10
5.899999999999997
 20
215.5
 30
0.0
 40
4.0
  1
B
  7
ISO Proportional
 72
     4
 11
7.5
 21
217.5
 31
0.0
100
AcDbText
  0
LINE
  5
2BC
330
266
100
AcDbEntity
  8
FRAME 050
100
AcDbLine
 10
10.0
 20
240.5
 30
0.0
 11
5.0
 21
240.5
 31
0.0
  0
LINE
  5
2BD
330
266
100
AcDbEntity
  8
FRAME 200
100
AcDbLine
 10
0.0
 20
297.0
 30
0.0
 11
0.0
 21
287.0
 31
0.0
  0
TEXT
  5
2BE
330
266
100
AcDbEntity
  8
FRAME 050
100
AcDbText
 10
5.699999999999999
 20
261.5
 30
0.0
 40
4.0
  1
A
  7
ISO Proportional
 72
     4
 11
7.5
 21
263.5
 31
0.0
100
AcDbText
  0
LINE
  5
2BF
330
266
100
AcDbEntity
  8
FRAME 200
100
AcDbLine
 10
10.0
 20
297.0
 30
0.0
 11
0.0
 21
297.0
 31
0.0
  0
LINE
  5
2C0
330
266
100
AcDbEntity
  8
FRAME 050
100
AcDbLine
 10
57.5
 20
287.0
 30
0.0
 11
57.5
 21
292.0
 31
0.0
  0
TEXT
  5
2C1
330
266
100
AcDbEntity
  8
FRAME 050
100
AcDbText
 10
32.75
 20
287.5
 30
0.0
 40
4.0
  1
1
  7
ISO Proportional
 72
     4
 11
33.75
 21
289.5
 31
0.0
100
AcDbText
  0
TEXT
  5
2C2
330
266
100
AcDbEntity
  8
FRAME 025
100
AcDbText
 10
44.0
 20
282.75
 30
0.0
 40
2.5
  1
Revision note
  7
ISO Proportional
 11
44.0
 21
284.0
 31
0.0
100
AcDbText
 73
     2
  0
TEXT
  5
2C3
330
266
100
AcDbEntity
  8
FRAME 025
100
AcDbText
 10
32.0
 20
282.75
 30
0.0
 40
2.5
  1
RevNo
  7
ISO Proportional
 11
32.0
 21
284.0
 31
0.0
100
AcDbText
 73
     2
  0
LINE
  5
2C4
330
266
100
AcDbEntity
  8
FRAME 070
100
AcDbLine
 10
30.0
 20
281.0
 30
0.0
 11
30.0
 21
287.0
 31
0.0
  0
LINE
  5
2C5
330
266
100
AcDbEntity
  8
FRAME 070
100
AcDbLine
 10
42.0
 20
281.0
 30
0.0
 11
42.0
 21
287.0
 31
0.0
  0
TEXT
  5
2C6
330
266
100
AcDbEntity
  8
FRAME 050
100
AcDbText
 10
201.193198051534
 20
169.5
 30
0.0
 40
4.0
  1
C
  7
ISO Proportional
 72
     4
 11
202.5
 21
171.5
 31
0.0
100
AcDbText
  0
LINE
  5
2C7
330
266
100
AcDbEntity
  8
FRAME 050
100
AcDbLine
 10
205.0
 20
194.5
 30
0.0
 11
200.0
 21
194.5
 31
0.0
  0
TEXT
  5
2C8
330
266
100
AcDbEntity
  8
FRAME 050
100
AcDbText
 10
200.9
 20
215.5
 30
0.0
 40
4.0
  1
B
  7
ISO Proportional
 72
     4
 11
202.5
 21
217.5
 31
0.0
100
AcDbText
  0
LINE
  5
2C9
330
266
100
AcDbEntity
  8
FRAME 050
100
AcDbLine
 10
205.0
 20
240.5
 30
0.0
 11
200.0
 21
240.5
 31
0.0
  0
LINE
  5
2CA
330
266
100
AcDbEntity
  8
FRAME 050
100
AcDbLine
 10
105.0
 20
282.0
 30
0.0
 11
105.0
 21
292.0
 31
0.0
  0
TEXT
  5
2CB
330
266
100
AcDbEntity
  8
FRAME 050
100
AcDbText
 10
79.78066929133858
 20
287.3996062992126
 30
0.0
 40
4.0
  1
2
  7
ISO Proportional
 72
     4
 11
81.25
 21
289.5
 31
0.0
100
AcDbText
  0
TEXT
  5
2CC
330
266
100
AcDbEntity
  8
FRAME 050
100
AcDbText
 10
127.2671572875254
 20
287.5828427124746
 30
0.0
 40
4.0
  1
3
  7
ISO Proportional
 72
     4
 11
128.75
 21
289.5
 31
0.0
100
AcDbText
  0
LINE
  5
2CD
330
266
100
AcDbEntity
  8
FRAME 200
100
AcDbLine
 10
210.0
 20
287.0
 30
0.0
 11
210.0
 21
297.0
 31
0.0
  0
LINE
  5
2CE
330
266
100
AcDbEntity
  8
FRAME 050
100
AcDbLine
 10
152.5
 20
287.0
 30
0.0
 11
152.5
 21
292.0
 31
0.0
  0
TEXT
  5
2CF
330
266
100
AcDbEntity
  8
FRAME 050
100
AcDbText
 10
174.65
 20
287.5
 30
0.0
 40
4.0
  1
4
  7
ISO Proportional
 72
     4
 11
176.25
 21
289.5
 31
0.0
100
AcDbText
  0
TEXT
  5
2D0
330
266
100
AcDbEntity
  8
FRAME 025
100
AcDbText
 10
171.3609979728353
 20
282.75
 30
0.0
 40
2.5
  1
Signature
  7
ISO Proportional
 11
171.3609979728353
 21
284.0
 31
0.0
100
AcDbText
 73
     2
  0
LINE
  5
2D1
330
266
100
AcDbEntity
  8
FRAME 070
100
AcDbLine
 10
151.0
 20
281.0
 30
0.0
 11
151.0
 21
287.0
 31
0.0
  0
TEXT
  5
2D2
330
266
100
AcDbEntity
  8
FRAME 025
100
AcDbText
 10
153.0
 20
282.75
 30
0.0
 40
2.5
  1
Date
  7
ISO Proportional
 11
153.0
 21
284.0
 31
0.0
100
AcDbText
 73
     2
  0
LINE
  5
2D3
330
266
100
AcDbEntity
  8
FRAME 070
100
AcDbLine
 10
171.0
 20
281.0
 30
0.0
 11
171.0
 21
287.0
 31
0.0
  0
TEXT
  5
2D4
330
266
100
AcDbEntity
  8
FRAME 050
100
AcDbText
 10
200.7
 20
261.5
 30
0.0
 40
4.0
  1
A
  7
ISO Proportional
 72
     4
 11
202.5
 21
263.5
 31
0.0
100
AcDbText
  0
TEXT
  5
2D5
330
266
100
AcDbEntity
  8
FRAME 025
100
AcDbText
 10
187.0829939185055
 20
282.75
 30
0.0
 40
2.5
  1
Checked
  7
ISO Proportional
 11
187.0829939185055
 21
284.0
 31
0.0
100
AcDbText
 73
     2
  0
LINE
  5
2D6
330
266
100
AcDbEntity
  8
FRAME 070
100
AcDbLine
 10
186.0
 20
281.0
 30
0.0
 11
186.0
 21
287.0
 31
0.0
  0
LINE
  5
2D7
330
266
100
AcDbEntity
  8
FRAME 200
100
AcDbLine
 10
210.0
 20
297.0
 30
0.0
 11
200.0
 21
297.0
 31
0.0
  0
ENDBLK
  5
2D9
330
266
100
AcDbEntity
  8
0
370
    -1
100
AcDbBlockEnd
  0
BLOCK
  5
3FD
330
3E6
100
AcDbEntity
  8
0
100
AcDbBlockBegin
  2
0d5 Bolt Hexfinished Sv
 70
     2
 10
0.0
 20
0.0
 30
0.0
  3
0d5 Bolt Hexfinished Sv
  1

  0
ATTDEF
  5
3E7
330
3E6
100
AcDbEntity
  8
0
100
AcDbText
 10
0.0
 20
0.0
 30
0.0
 40
0.0002730102514301
  1

 41
0.8
  7
ATTR
100
AcDbAttributeDefinition
  3

  2
ESTCODE
 70
     9
280
     0
 71
     1
 72
     0
 11
0.0
 21
0.0
 31
0.0
  0
LINE
  5
3E8
330
3E6
100
AcDbEntity
  8
0
100
AcDbLine
 10
0.9499999999999993
 20
-0.25
 30
0.0
 11
0.0
 21
-0.25
 31
0.0
  0
LINE
  5
3E9
330
3E6
100
AcDbEntity
  8
0
100
AcDbLine
 10
0.0
 20
0.25
 30
0.0
 11
0.9499999999999993
 21
0.25
 31
0.0
  0
LWPOLYLINE
  5
3EA
330
3E6
100
AcDbEntity
  8
0
100
AcDbPolyline
 90
        2
 70
     0
 43
0.0
 10
0.0
 20
0.3414999999999999
 10
0.0
 20
-0.3414999999999999
  0
ARC
  5
3EB
330
3E6
100
AcDbEntity
  8
0
100
AcDbCircle
 10
0.323105
 20
0.0
 30
0.0
 40
0.6871052
100
AcDbArc
 50
161.6338
 51
198.3662
  0
LINE
  5
3EC
330
3E6
100
AcDbEntity
  8
0
100
AcDbLine
 10
-0.3640009999999991
 20
-0.3247499999999999
 30
0.0
 11
-0.3640009999999991
 21
0.3247499999999999
 31
0.0
  0
LINE
  5
3ED
330
3E6
100
AcDbEntity
  8
0
100
AcDbLine
 10
-0.04
 20
-0.4329999999999998
 30
0.0
 11
-0.04
 21
0.4329999999999998
 31
0.0
  0
LWPOLYLINE
  5
3EE
330
3E6
100
AcDbEntity
  8
0
100
AcDbPolyline
 90
        2
 70
     0
 43
0.0
 10
-0.04
 20
-0.4329999999999998
 10
-0.329000999999999
 20
-0.4329999999999998
  0
LINE
  5
3EF
330
3E6
100
AcDbEntity
  8
0
100
AcDbLine
 10
-0.329000999999999
 20
-0.2164999999999999
 30
0.0
 11
-0.0386259999999998
 21
-0.2164999999999999
 31
0.0
  0
ARC
  5
3F0
330
3E6
100
AcDbEntity
  8
0
100
AcDbCircle
 10
-0.1790990000000008
 20
-0.3247499999999999
 30
0.0
 40
0.1849013
100
AcDbArc
 50
144.1654
 51
215.8346
  0
LINE
  5
3F1
330
3E6
100
AcDbEntity
  8
0
100
AcDbLine
 10
0.0
 20
-0.3414999999999999
 30
0.0
 11
-0.04
 21
-0.3414999999999999
 31
0.0
  0
ARC
  5
3F2
330
3E6
100
AcDbEntity
  8
0
100
AcDbCircle
 10
-0.1790979999999998
 20
0.3247499999999999
 30
0.0
 40
0.184902
100
AcDbArc
 50
144.1655
 51
215.8345
  0
LINE
  5
3F3
330
3E6
100
AcDbEntity
  8
0
100
AcDbLine
 10
-0.329000999999999
 20
0.2164999999999999
 30
0.0
 11
-0.0386259999999998
 21
0.2164999999999999
 31
0.0
  0
LWPOLYLINE
  5
3F4
330
3E6
100
AcDbEntity
  8
0
100
AcDbPolyline
 90
        2
 70
     0
 43
0.0
 10
-0.329000999999999
 20
0.4329999999999998
 10
-0.04
 20
0.4329999999999998
  0
LINE
  5
3F5
330
3E6
100
AcDbEntity
  8
0
100
AcDbLine
 10
0.0
 20
0.3414999999999999
 30
0.0
 11
-0.04
 21
0.3414999999999999
 31
0.0
  0
LINE
  5
3F6
330
3E6
100
AcDbEntity
  8
0
100
AcDbLine
 10
1.0
 20
0.1999999999999993
 30
0.0
 11
1.0
 21
-0.2000000000000011
 31
0.0
  0
LINE
  5
3F7
330
3E6
100
AcDbEntity
  8
0
100
AcDbLine
 10
0.9499999999999993
 20
-0.25
 30
0.0
 11
0.9499999999999993
 21
0.25
 31
0.0
  0
LINE
  5
3F8
330
3E6
100
AcDbEntity
  8
0
100
AcDbLine
 10
0.5
 20
0.25
 30
0.0
 11
0.5
 21
-0.25
 31
0.0
  0
LINE
  5
3F9
330
3E6
100
AcDbEntity
  8
0
100
AcDbLine
 10
0.9499999999999993
 20
-0.25
 30
0.0
 11
1.0
 21
-0.2000000000000011
 31
0.0
  0
LINE
  5
3FA
330
3E6
100
AcDbEntity
  8
0
  6
HIDDEN
100
AcDbLine
 10
0.9499999999999993
 20
-0.2000000000000011
 30
0.0
 11
0.5
 21
-0.2000000000000011
 31
0.0
  0
LINE
  5
3FB
330
3E6
100
AcDbEntity
  8
0
100
AcDbLine
 10
0.9499999999999993
 20
0.25
 30
0.0
 11
1.0
 21
0.1999999999999993
 31
0.0
  0
LINE
  5
3FC
330
3E6
100
AcDbEntity
  8
0
  6
HIDDEN
100
AcDbLine
 10
0.5
 20
0.1999999999999993
 30
0.0
 11
0.9499999999999993
 21
0.1999999999999993
 31
0.0
  0
ENDBLK
  5
3FE
330
3E6
100
AcDbEntity
  8
0
100
AcDbBlockEnd
  0
BLOCK
  5
41E
330
40C
100
AcDbEntity
  8
0
100
AcDbBlockBegin
  2
0d5 Bolt Hexhead Sv
 70
     2
 10
0.0
 20
0.0
 30
0.0
  3
0d5 Bolt Hexhead Sv
  1

  0
ATTDEF
  5
40D
330
40C
100
AcDbEntity
  8
0
100
AcDbText
 10
0.0
 20
0.0
 30
0.0
 40
0.0002730102514301
  1

 41
0.8
  7
ATTR
100
AcDbAttributeDefinition
  3

  2
ESTCODE
 70
     9
280
     0
 71
     1
 72
     0
 11
0.0
 21
0.0
 31
0.0
  0
LINE
  5
40E
330
40C
100
AcDbEntity
  8
0
100
AcDbLine
 10
1.0
 20
0.2000000000000028
 30
0.0
 11
1.0
 21
-0.1999999999999993
 31
0.0
  0
LINE
  5
40F
330
40C
100
AcDbEntity
  8
0
100
AcDbLine
 10
0.9499999999999993
 20
-0.25
 30
0.0
 11
0.9499999999999993
 21
0.25
 31
0.0
  0
LINE
  5
410
330
40C
100
AcDbEntity
  8
0
100
AcDbLine
 10
0.5
 20
0.25
 30
0.0
 11
0.5
 21
-0.25
 31
0.0
  0
ARC
  5
411
330
40C
100
AcDbEntity
  8
0
100
AcDbCircle
 10
0.323109999999998
 20
0.0
 30
0.0
 40
0.6871052
100
AcDbArc
 50
161.6338
 51
198.3662
  0
LINE
  5
412
330
40C
100
AcDbEntity
  8
0
100
AcDbLine
 10
-0.363999999999999
 20
-0.3247499999999981
 30
0.0
 11
-0.363999999999999
 21
0.3247500000000016
 31
0.0
  0
LWPOLYLINE
  5
413
330
40C
100
AcDbEntity
  8
0
100
AcDbPolyline
 90
        4
 70
     0
 43
0.0
 10
-0.3289999999999988
 20
0.4329999999999998
 10
0.0
 20
0.4329999999999998
 10
0.0
 20
-0.4329999999999998
 10
-0.3289999999999988
 20
-0.4329999999999998
  0
LINE
  5
414
330
40C
100
AcDbEntity
  8
0
  6
HIDDEN
100
AcDbLine
 10
0.5
 20
-0.1999999999999993
 30
0.0
 11
0.9499999999999993
 21
-0.1999999999999993
 31
0.0
  0
LINE
  5
415
330
40C
100
AcDbEntity
  8
0
100
AcDbLine
 10
0.9499999999999993
 20
-0.25
 30
0.0
 11
0.0
 21
-0.25
 31
0.0
  0
LINE
  5
416
330
40C
100
AcDbEntity
  8
0
100
AcDbLine
 10
-0.3289999999999988
 20
-0.2164999999999999
 30
0.0
 11
0.0
 21
-0.2164999999999999
 31
0.0
  0
ARC
  5
417
330
40C
100
AcDbEntity
  8
0
100
AcDbCircle
 10
-0.1791
 20
-0.3247499999999981
 30
0.0
 40
0.1849013
100
AcDbArc
 50
144.1654
 51
215.8346
  0
LINE
  5
418
330
40C
100
AcDbEntity
  8
0
100
AcDbLine
 10
0.9499999999999993
 20
-0.25
 30
0.0
 11
1.0
 21
-0.1999999999999993
 31
0.0
  0
LINE
  5
419
330
40C
100
AcDbEntity
  8
0
  6
HIDDEN
100
AcDbLine
 10
0.9499999999999993
 20
0.2000000000000028
 30
0.0
 11
0.5
 21
0.2000000000000028
 31
0.0
  0
LINE
  5
41A
330
40C
100
AcDbEntity
  8
0
100
AcDbLine
 10
0.0
 20
0.25
 30
0.0
 11
0.9499999999999993
 21
0.25
 31
0.0
  0
ARC
  5
41B
330
40C
100
AcDbEntity
  8
0
100
AcDbCircle
 10
-0.1791
 20
0.3247500000000016
 30
0.0
 40
0.184902
100
AcDbArc
 50
144.1655
 51
215.8345
  0
LINE
  5
41C
330
40C
100
AcDbEntity
  8
0
100
AcDbLine
 10
-0.3289999999999988
 20
0.2164999999999999
 30
0.0
 11
0.0
 21
0.2164999999999999
 31
0.0
  0
LINE
  5
41D
330
40C
100
AcDbEntity
  8
0
100
AcDbLine
 10
0.9499999999999993
 20
0.25
 30
0.0
 11
1.0
 21
0.2000000000000028
 31
0.0
  0
ENDBLK
  5
41F
330
40C
100
AcDbEntity
  8
0
100
AcDbBlockEnd
  0
BLOCK
  5
463
330
44C
100
AcDbEntity
  8
0
100
AcDbBlockBegin
  2
A$C733C44AF
 70
     2
 10
0.0
 20
0.0
 30
0.0
  3
A$C733C44AF
  1

  0
LINE
  5
44D
330
44C
100
AcDbEntity
  8
0
100
AcDbLine
 10
1.597623197281564
 20
-1.640871227263915
 30
0.0
 11
3.047623197281553
 21
-1.640871227263915
 31
0.0
  0
LINE
  5
44E
330
44C
100
AcDbEntity
  8
0
100
AcDbLine
 10
3.047623197281553
 20
-2.140871227263915
 30
0.0
 11
1.597623197281564
 21
-2.140871227263915
 31
0.0
  0
ARC
  5
44F
330
44C
100
AcDbEntity
  8
0
100
AcDbCircle
 10
1.418525197281554
 20
-1.566121227263915
 30
0.0
 40
0.184902
100
AcDbArc
 50
144.1655000000001
 51
215.8344999999999
  0
LINE
  5
450
330
44C
100
AcDbEntity
  8
0
100
AcDbLine
 10
1.557623197281572
 20
-2.323871227263915
 30
0.0
 11
1.557623197281572
 21
-1.457871227263915
 31
0.0
  0
LINE
  5
451
330
44C
100
AcDbEntity
  8
0
100
AcDbLine
 10
1.597623197281564
 20
-1.549371227263915
 30
0.0
 11
1.557623197281572
 21
-1.549371227263915
 31
0.0
  0
LINE
  5
452
330
44C
100
AcDbEntity
  8
0
100
AcDbLine
 10
1.268622197281559
 20
-1.674371227263915
 30
0.0
 11
1.55899719728157
 21
-1.674371227263915
 31
0.0
  0
LINE
  5
453
330
44C
100
AcDbEntity
  8
0
100
AcDbLine
 10
1.597623197281564
 20
-2.232371227263915
 30
0.0
 11
1.557623197281572
 21
-2.232371227263915
 31
0.0
  0
ARC
  5
454
330
44C
100
AcDbEntity
  8
0
100
AcDbCircle
 10
1.418524197281556
 20
-2.215621227263915
 30
0.0
 40
0.1849013
100
AcDbArc
 50
144.1653999999994
 51
215.8346000000005
  0
LINE
  5
455
330
44C
100
AcDbEntity
  8
0
100
AcDbLine
 10
1.268622197281559
 20
-2.107371227263915
 30
0.0
 11
1.55899719728157
 21
-2.107371227263915
 31
0.0
  0
LWPOLYLINE
  5
456
330
44C
100
AcDbEntity
  8
0
100
AcDbPolyline
 90
        2
 70
     0
 43
0.0
 10
1.557623197281572
 20
-2.323871227263915
 10
1.268622197281559
 20
-2.323871227263915
  0
LINE
  5
457
330
44C
100
AcDbEntity
  8
0
100
AcDbLine
 10
1.233622197281562
 20
-2.215621227263915
 30
0.0
 11
1.233622197281562
 21
-1.566121227263915
 31
0.0
  0
ARC
  5
458
330
44C
100
AcDbEntity
  8
0
100
AcDbCircle
 10
1.920728197281562
 20
-1.890871227263915
 30
0.0
 40
0.6871052
100
AcDbArc
 50
161.6337999999997
 51
198.3662000000003
  0
LWPOLYLINE
  5
459
330
44C
100
AcDbEntity
  8
0
100
AcDbPolyline
 90
        2
 70
     0
 43
0.0
 10
1.597623197281564
 20
-1.549371227263915
 10
1.597623197281564
 20
-2.232371227263915
  0
ATTDEF
  5
45A
330
44C
100
AcDbEntity
  8
0
100
AcDbText
 10
1.597623197281564
 20
-1.890871227263915
 30
0.0
 40
0.0002730102514301
  1

 41
0.8
  7
ATTR
100
AcDbAttributeDefinition
  3

  2
ESTCODE
 70
     9
280
     0
 71
     1
 72
     0
 11
0.0
 21
0.0
 31
0.0
  0
LWPOLYLINE
  5
45B
330
44C
100
AcDbEntity
  8
0
100
AcDbPolyline
 90
        2
 70
     0
 43
0.0
 10
1.268622197281559
 20
-1.457871227263915
 10
1.557623197281572
 20
-1.457871227263915
  0
LINE
  5
45C
330
44C
100
AcDbEntity
  8
0
100
AcDbLine
 10
3.097623197281564
 20
-1.690871227263916
 30
0.0
 11
3.097623197281564
 21
-2.090871227263916
 31
0.0
  0
LINE
  5
45D
330
44C
100
AcDbEntity
  8
0
100
AcDbLine
 10
3.047623197281553
 20
-2.140871227263915
 30
0.0
 11
3.047623197281553
 21
-1.640871227263915
 31
0.0
  0
LINE
  5
45E
330
44C
100
AcDbEntity
  8
0
100
AcDbLine
 10
2.597623197281564
 20
-1.640871227263915
 30
0.0
 11
2.597623197281564
 21
-2.140871227263915
 31
0.0
  0
LINE
  5
45F
330
44C
100
AcDbEntity
  8
0
100
AcDbLine
 10
3.047623197281553
 20
-2.140871227263915
 30
0.0
 11
3.097623197281564
 21
-2.090871227263916
 31
0.0
  0
LINE
  5
460
330
44C
100
AcDbEntity
  8
0
  6
HIDDEN
100
AcDbLine
 10
3.047623197281553
 20
-2.090871227263916
 30
0.0
 11
2.597623197281564
 21
-2.090871227263916
 31
0.0
  0
LINE
  5
461
330
44C
100
AcDbEntity
  8
0
100
AcDbLine
 10
3.047623197281553
 20
-1.640871227263915
 30
0.0
 11
3.097623197281564
 21
-1.690871227263916
 31
0.0
  0
LINE
  5
462
330
44C
100
AcDbEntity
  8
0
  6
HIDDEN
100
AcDbLine
 10
2.597623197281564
 20
-1.690871227263916
 30
0.0
 11
3.047623197281553
 21
-1.690871227263916
 31
0.0
  0
ENDBLK
  5
464
330
44C
100
AcDbEntity
  8
0
100
AcDbBlockEnd
  0
BLOCK
  5
481
330
473
100
AcDbEntity
  8
0
100
AcDbBlockBegin
  2
0D5 Hex Nut Sv
 70
     2
 10
0.0
 20
0.0
 30
0.0
  3
0D5 Hex Nut Sv
  1

  0
ATTDEF
  5
474
330
473
100
AcDbEntity
  8
0
100
AcDbText
 10
0.0
 20
0.0
 30
0.0
 40
0.0002168083167248
  1

 41
0.8
  7
ATTR
100
AcDbAttributeDefinition
  3

  2
ESTCODE
 70
     9
280
     0
 71
     1
 72
     0
 11
0.0
 21
0.0
 31
0.0
  0
ARC
  5
475
330
473
100
AcDbEntity
  8
0
100
AcDbCircle
 10
0.210305199999698
 20
-0.3247506948201146
 30
0.0
 40
0.2103013
100
AcDbArc
 50
149.0201
 51
210.9799
  0
LINE
  5
476
330
473
100
AcDbEntity
  8
0
100
AcDbLine
 10
0.0000051999996978
 20
-0.3247506948201146
 30
0.0
 11
0.0000051999996978
 21
0.3247493051798851
 31
0.0
  0
LINE
  5
477
330
473
100
AcDbEntity
  8
0
100
AcDbLine
 10
0.4480051999996982
 20
0.3247493051798851
 30
0.0
 11
0.4480051999996982
 21
-0.3247506948201146
 31
0.0
  0
ARC
  5
478
330
473
100
AcDbEntity
  8
0
100
AcDbCircle
 10
0.2376951999996985
 20
-0.3247506948201146
 30
0.0
 40
0.2103013
100
AcDbArc
 50
329.0201000000001
 51
30.97991
  0
LWPOLYLINE
  5
479
330
473
100
AcDbEntity
  8
0
100
AcDbPolyline
 90
        2
 70
     0
 43
0.0
 10
0.4180051999996971
 20
-0.4330006948201128
 10
0.0299951999996994
 20
-0.4330006948201128
  0
ARC
  5
47A
330
473
100
AcDbEntity
  8
0
100
AcDbCircle
 10
0.7962051999996967
 20
-0.000000694820113
 30
0.0
 40
0.7962052
100
AcDbArc
 50
164.2217
 51
195.7782000000001
  0
ARC
  5
47B
330
473
100
AcDbEntity
  8
0
100
AcDbCircle
 10
0.210305199999698
 20
0.3247493051798851
 30
0.0
 40
0.2103013
100
AcDbArc
 50
149.0201
 51
210.9799
  0
ARC
  5
47C
330
473
100
AcDbEntity
  8
0
100
AcDbCircle
 10
0.2376951999996985
 20
0.3247493051798851
 30
0.0
 40
0.2103013
100
AcDbArc
 50
329.0201000000001
 51
30.97992
  0
ARC
  5
47D
330
473
100
AcDbEntity
  8
0
100
AcDbCircle
 10
-0.3482048000003021
 20
-0.000000694820113
 30
0.0
 40
0.7962052
100
AcDbArc
 50
344.2218
 51
15.77825000000001
  0
LWPOLYLINE
  5
47E
330
473
100
AcDbEntity
  8
0
100
AcDbPolyline
 90
        2
 70
     0
 43
0.0
 10
0.0299951999996994
 20
0.4329993051798868
 10
0.4180051999996971
 20
0.4329993051798868
  0
LINE
  5
47F
330
473
100
AcDbEntity
  8
0
100
AcDbLine
 10
0.0299951999996994
 20
0.2164993051798869
 30
0.0
 11
0.4180051999996971
 21
0.2164993051798869
 31
0.0
  0
LINE
  5
480
330
473
100
AcDbEntity
  8
0
100
AcDbLine
 10
0.0299951999996994
 20
-0.2165006948201129
 30
0.0
 11
0.4179951999996993
 21
-0.2165006948201129
 31
0.0
  0
ENDBLK
  5
482
330
473
100
AcDbEntity
  8
0
100
AcDbBlockEnd
  0
BLOCK
  5
53F
330
53B
100
AcDbEntity
  8
0
100
AcDbBlockBegin
  2
REVDATE
 70
     2
 10
0.0
 20
0.0
 30
0.0
  3
REVDATE
  1
REVDATE
  0
ATTDEF
  5
53C
330
53B
100
AcDbEntity
  8
0
 62
     0
100
AcDbText
 10
60.32871923950393
 20
2.190713960987978
 30
0.0
 40
4.0
  1

  7
EWText
100
AcDbAttributeDefinition
  3

  2
USER
 70
     8
280
     0
 71
     1
 72
     0
 11
0.0
 21
0.0
 31
0.0
  0
ATTDEF
  5
53D
330
53B
100
AcDbEntity
  8
0
 62
     0
100
AcDbText
 10
135.7316866973933
 20
2.190713960987978
 30
0.0
 40
4.0
  1

  7
EWText
 72
     1
 11
135.7316866973933
 21
2.190713960987978
 31
0.0
100
AcDbAttributeDefinition
  3

  2
REVDATE
 70
     8
280
     0
 71
     1
 72
     0
 11
135.7316866973933
 21
2.190713960987978
 31
0.0
  0
ATTDEF
  5
53E
330
53B
100
AcDbEntity
  8
0
 62
     0
100
AcDbText
 10
222.3775453517287
 20
2.190713960987978
 30
0.0
 40
4.0
  1

  7
EWText
 72
     2
 11
222.3775453517287
 21
2.190713960987978
 31
0.0
100
AcDbAttributeDefinition
  3

  2
FNAME
 70
     8
280
     0
 71
     1
 72
     0
 11
222.3775453517287
 21
2.190713960987978
 31
0.0
  0
ENDBLK
  5
540
330
53B
100
AcDbEntity
  8
0
100
AcDbBlockEnd
  0
BLOCK
  5
940
330
93C
100
AcDbEntity
  8
0
100
AcDbBlockBegin
  2
1-1_2x0d200 Pipe End-V
 70
     2
 10
0.0
 20
0.0
 30
0.0
  3
1-1_2x0d200 Pipe End-V
  1

  0
CIRCLE
  5
93D
330
93C
100
AcDbEntity
  8
0
100
AcDbCircle
 10
0.0
 20
0.0
 30
0.0
 40
0.95
  0
CIRCLE
  5
93E
330
93C
100
AcDbEntity
  8
0
100
AcDbCircle
 10
0.0
 20
0.0
 30
0.0
 40
0.75
  0
ATTDEF
  5
93F
330
93C
100
AcDbEntity
  8
0
100
AcDbText
 10
0.0
 20
0.0
 30
0.0
 40
0.0000198783894332
  1

 41
0.8
  7
ATTR
100
AcDbAttributeDefinition
  3

  2
ESTCODE
 70
     9
280
     0
 71
     1
 72
     0
 11
0.0
 21
0.0
 31
0.0
  0
ENDBLK
  5
941
330
93C
100
AcDbEntity
  8
0
100
AcDbBlockEnd
  0
BLOCK
  5
956
330
942
100
AcDbEntity
  8
0
100
AcDbBlockBegin
  2
2x2x3_16 Tube End-V
 70
     2
 10
0.0
 20
0.0
 30
0.0
  3
2x2x3_16 Tube End-V
  1

  0
LINE
  5
943
330
942
100
AcDbEntity
  8
0
100
AcDbLine
 10
0.625
 20
2.0
 30
0.0
 11
-0.625
 21
2.0
 31
0.0
  0
LINE
  5
944
330
942
100
AcDbEntity
  8
0
100
AcDbLine
 10
1.0
 20
0.375
 30
0.0
 11
1.0
 21
1.625
 31
0.0
  0
ARC
  5
945
330
942
100
AcDbEntity
  8
0
100
AcDbCircle
 10
0.625
 20
1.625
 30
0.0
 40
0.1875
100
AcDbArc
 50
0.0
 51
90.0
  0
LINE
  5
946
330
942
100
AcDbEntity
  8
0
100
AcDbLine
 10
0.8125
 20
0.375
 30
0.0
 11
0.8125
 21
1.625
 31
0.0
  0
LINE
  5
947
330
942
100
AcDbEntity
  8
0
100
AcDbLine
 10
0.0
 20
0.1875
 30
0.0
 11
0.625
 21
0.1875
 31
0.0
  0
LINE
  5
948
330
942
100
AcDbEntity
  8
0
100
AcDbLine
 10
0.0
 20
0.0
 30
0.0
 11
0.625
 21
0.0
 31
0.0
  0
ARC
  5
949
330
942
100
AcDbEntity
  8
0
100
AcDbCircle
 10
0.625
 20
0.375
 30
0.0
 40
0.1875
100
AcDbArc
 50
270.0
 51
0.0
  0
ARC
  5
94A
330
942
100
AcDbEntity
  8
0
100
AcDbCircle
 10
0.625
 20
0.375
 30
0.0
 40
0.375
100
AcDbArc
 50
270.0
 51
0.0
  0
ARC
  5
94B
330
942
100
AcDbEntity
  8
0
100
AcDbCircle
 10
-0.625
 20
1.625
 30
0.0
 40
0.1875
100
AcDbArc
 50
90.0
 51
180.0
  0
LINE
  5
94C
330
942
100
AcDbEntity
  8
0
100
AcDbLine
 10
-0.8125
 20
1.625
 30
0.0
 11
-0.8125
 21
0.375
 31
0.0
  0
LINE
  5
94D
330
942
100
AcDbEntity
  8
0
100
AcDbLine
 10
-1.0
 20
1.625
 30
0.0
 11
-1.0
 21
0.375
 31
0.0
  0
ARC
  5
94E
330
942
100
AcDbEntity
  8
0
100
AcDbCircle
 10
-0.625
 20
0.375
 30
0.0
 40
0.1875
100
AcDbArc
 50
180.0
 51
270.0
  0
ARC
  5
94F
330
942
100
AcDbEntity
  8
0
100
AcDbCircle
 10
-0.625
 20
0.375
 30
0.0
 40
0.375
100
AcDbArc
 50
180.0
 51
270.0
  0
LINE
  5
950
330
942
100
AcDbEntity
  8
0
100
AcDbLine
 10
0.625
 20
1.8125
 30
0.0
 11
-0.625
 21
1.8125
 31
0.0
  0
LINE
  5
951
330
942
100
AcDbEntity
  8
0
100
AcDbLine
 10
-0.625
 20
0.1875
 30
0.0
 11
0.0
 21
0.1875
 31
0.0
  0
LINE
  5
952
330
942
100
AcDbEntity
  8
0
100
AcDbLine
 10
-0.625
 20
0.0
 30
0.0
 11
0.0
 21
0.0
 31
0.0
  0
ARC
  5
953
330
942
100
AcDbEntity
  8
0
100
AcDbCircle
 10
-0.625
 20
1.625
 30
0.0
 40
0.375
100
AcDbArc
 50
90.0
 51
180.0
  0
ARC
  5
954
330
942
100
AcDbEntity
  8
0
100
AcDbCircle
 10
0.625
 20
1.625
 30
0.0
 40
0.375
100
AcDbArc
 50
0.0
 51
90.0
  0
ATTDEF
  5
955
330
942
100
AcDbEntity
  8
0
100
AcDbText
 10
0.0
 20
0.0
 30
0.0
 40
0.0000198783894332
  1

 41
0.8
  7
ATTR
100
AcDbAttributeDefinition
  3

  2
ESTCODE
 70
     9
280
     0
 71
     1
 72
     0
 11
0.0
 21
0.0
 31
0.0
  0
ENDBLK
  5
957
330
942
100
AcDbEntity
  8
0
100
AcDbBlockEnd
  0
ENDSEC
  0
SECTION
  2
ENTITIES
  0
LINE
  5
1104
330
1F
100
AcDbEntity
  8
Cut
100
AcDbLine
 10
36.68699491088583
 20
21.27455083241333
 30
0.0
 11
36.59098338886911
 21
21.24585434070825
 31
0.0
  0
LINE
  5
1105
330
1F
100
AcDbEntity
  8
Cut
100
AcDbLine
 10
36.59098338886911
 20
21.24585434070825
 30
0.0
 11
36.49610660392514
 21
21.21310845225754
 31
0.0
  0
LINE
  5
1106
330
1F
100
AcDbEntity
  8
Cut
100
AcDbLine
 10
36.49610660392514
 20
21.21310845225754
 30
0.0
 11
36.41444629346753
 21
21.18106538377333
 31
0.0
  0
LINE
  5
1107
330
1F
100
AcDbEntity
  8
Cut
100
AcDbLine
 10
36.41444629346753
 20
21.18106538377333
 30
0.0
 11
36.36594331731799
 21
21.15617691179338
 31
0.0
  0
LINE
  5
1108
330
1F
100
AcDbEntity
  8
Cut
100
AcDbLine
 10
36.36594331731799
 20
21.15617691179338
 30
0.0
 11
36.26985697026208
 21
21.08226105850499
 31
0.0
  0
LINE
  5
1109
330
1F
100
AcDbEntity
  8
Cut
100
AcDbLine
 10
36.26985697026208
 20
21.08226105850499
 30
0.0
 11
36.18065681014332
 21
20.98364546240424
 31
0.0
  0
LINE
  5
110A
330
1F
100
AcDbEntity
  8
Cut
100
AcDbLine
 10
36.18065681014332
 20
20.98364546240424
 30
0.0
 11
36.10618219674114
 21
20.87030292859179
 31
0.0
  0
LINE
  5
110B
330
1F
100
AcDbEntity
  8
Cut
100
AcDbLine
 10
36.10618219674114
 20
20.87030292859179
 30
0.0
 11
36.05402423657449
 21
20.75234339329061
 31
0.0
  0
LINE
  5
110C
330
1F
100
AcDbEntity
  8
Cut
100
AcDbLine
 10
36.05402423657449
 20
20.75234339329061
 30
0.0
 11
36.03204423040236
 21
20.6959332922788
 31
0.0
  0
LINE
  5
110D
330
1F
100
AcDbEntity
  8
Cut
100
AcDbLine
 10
36.03204423040236
 20
20.6959332922788
 30
0.0
 11
36.00667345054966
 21
20.64613020810879
 31
0.0
  0
LINE
  5
110E
330
1F
100
AcDbEntity
  8
Cut
100
AcDbLine
 10
36.00667345054966
 20
20.64613020810879
 30
0.0
 11
35.98153108259316
 21
20.60799339998077
 31
0.0
  0
LINE
  5
110F
330
1F
100
AcDbEntity
  8
Cut
100
AcDbLine
 10
35.98153108259316
 20
20.60799339998077
 30
0.0
 11
35.96191007291264
 21
20.59399652474369
 31
0.0
  0
LINE
  5
1110
330
1F
100
AcDbEntity
  8
Cut
100
AcDbLine
 10
35.96191007291264
 20
20.59399652474369
 30
0.0
 11
35.90799483974561
 21
20.56408957859017
 31
0.0
  0
LINE
  5
1111
330
1F
100
AcDbEntity
  8
Cut
100
AcDbLine
 10
35.90799483974561
 20
20.56408957859017
 30
0.0
 11
35.85253883015776
 21
20.50691028352414
 31
0.0
  0
LINE
  5
1112
330
1F
100
AcDbEntity
  8
Cut
100
AcDbLine
 10
35.85253883015776
 20
20.50691028352414
 30
0.0
 11
35.8069789897132
 21
20.43760888594095
 31
0.0
  0
LINE
  5
1113
330
1F
100
AcDbEntity
  8
Cut
100
AcDbLine
 10
35.8069789897132
 20
20.43760888594095
 30
0.0
 11
35.78273008678973
 21
20.37012436418662
 31
0.0
  0
LINE
  5
1114
330
1F
100
AcDbEntity
  8
Cut
100
AcDbLine
 10
35.78273008678973
 20
20.37012436418662
 30
0.0
 11
35.76363033284522
 21
20.32010003305751
 31
0.0
  0
LINE
  5
1115
330
1F
100
AcDbEntity
  8
Cut
100
AcDbLine
 10
35.76363033284522
 20
20.32010003305751
 30
0.0
 11
35.73106264924057
 21
20.28601115194443
 31
0.0
  0
LINE
  5
1116
330
1F
100
AcDbEntity
  8
Cut
100
AcDbLine
 10
35.73106264924057
 20
20.28601115194443
 30
0.0
 11
35.66805041299247
 21
20.25408681670375
 31
0.0
  0
LINE
  5
1117
330
1F
100
AcDbEntity
  8
Cut
100
AcDbLine
 10
35.66805041299247
 20
20.25408681670375
 30
0.0
 11
35.5166809596662
 21
20.19833497132434
 31
0.0
  0
LINE
  5
1118
330
1F
100
AcDbEntity
  8
Cut
100
AcDbLine
 10
35.5166809596662
 20
20.19833497132434
 30
0.0
 11
34.79352921122707
 21
19.86008897217929
 31
0.0
  0
LINE
  5
1119
330
1F
100
AcDbEntity
  8
Cut
100
AcDbLine
 10
34.79352921122707
 20
19.86008897217929
 30
0.0
 11
34.14580989443117
 21
19.38877935662845
 31
0.0
  0
LINE
  5
111A
330
1F
100
AcDbEntity
  8
Cut
100
AcDbLine
 10
34.14580989443117
 20
19.38877935662845
 30
0.0
 11
33.59857635354754
 21
18.80285932833907
 31
0.0
  0
LINE
  5
111B
330
1F
100
AcDbEntity
  8
Cut
100
AcDbLine
 10
33.59857635354754
 20
18.80285932833907
 30
0.0
 11
33.17322343197252
 21
18.12495977421705
 31
0.0
  0
LINE
  5
111C
330
1F
100
AcDbEntity
  8
Cut
100
AcDbLine
 10
33.17322343197252
 20
18.12495977421705
 30
0.0
 11
33.07570504232159
 21
17.91277121152794
 31
0.0
  0
LINE
  5
111D
330
1F
100
AcDbEntity
  8
Cut
100
AcDbLine
 10
33.07570504232159
 20
17.91277121152794
 30
0.0
 11
32.9776473664885
 21
17.66327930923751
 31
0.0
  0
LINE
  5
111E
330
1F
100
AcDbEntity
  8
Cut
100
AcDbLine
 10
32.9776473664885
 20
17.66327930923751
 30
0.0
 11
32.89335240629949
 21
17.41671894227767
 31
0.0
  0
LINE
  5
111F
330
1F
100
AcDbEntity
  8
Cut
100
AcDbLine
 10
32.89335240629949
 20
17.41671894227767
 30
0.0
 11
32.83908546132952
 21
17.21533040686047
 31
0.0
  0
LINE
  5
1120
330
1F
100
AcDbEntity
  8
Cut
100
AcDbLine
 10
32.83908546132952
 20
17.21533040686047
 30
0.0
 11
32.80540162224725
 21
17.06442055931684
 31
0.0
  0
LINE
  5
1121
330
1F
100
AcDbEntity
  8
Cut
100
AcDbLine
 10
32.80540162224725
 20
17.06442055931684
 30
0.0
 11
32.3237508503418
 21
17.06442055931684
 31
0.0
  0
LINE
  5
1122
330
1F
100
AcDbEntity
  8
Cut
100
AcDbLine
 10
32.3237508503418
 20
17.06442055931684
 30
0.0
 11
31.84210007843636
 21
17.06442055931684
 31
0.0
  0
LINE
  5
1123
330
1F
100
AcDbEntity
  8
Cut
100
AcDbLine
 10
31.84210007843636
 20
17.06442055931684
 30
0.0
 11
31.84210007843636
 21
14.88606971651316
 31
0.0
  0
LINE
  5
1124
330
1F
100
AcDbEntity
  8
Cut
100
AcDbLine
 10
31.84210007843636
 20
14.88606971651316
 30
0.0
 11
31.84210007843636
 21
14.88606971651316
 31
0.0
  0
LINE
  5
1125
330
1F
100
AcDbEntity
  8
Cut
100
AcDbLine
 10
31.84210007843636
 20
14.88606971651316
 30
0.0
 11
33.62735533388755
 21
14.88606971651316
 31
0.0
  0
LINE
  5
1126
330
1F
100
AcDbEntity
  8
Cut
100
AcDbLine
 10
33.62735533388755
 20
14.88606971651316
 30
0.0
 11
34.44953929458741
 21
14.88606971651316
 31
0.0
  0
LINE
  5
1127
330
1F
100
AcDbEntity
  8
Cut
100
AcDbLine
 10
34.44953929458741
 20
14.88606971651316
 30
0.0
 11
35.00391192106748
 21
14.86645566180822
 31
0.0
  0
LINE
  5
1128
330
1F
100
AcDbEntity
  8
Cut
100
AcDbLine
 10
35.00391192106748
 20
14.86645566180822
 30
0.0
 11
35.40639914001384
 21
14.85512067881067
 31
0.0
  0
LINE
  5
1129
330
1F
100
AcDbEntity
  8
Cut
100
AcDbLine
 10
35.40639914001384
 20
14.85512067881067
 30
0.0
 11
35.50388648160397
 21
14.83947277110589
 31
0.0
  0
LINE
  5
112A
330
1F
100
AcDbEntity
  8
Cut
100
AcDbLine
 10
35.50388648160397
 20
14.83947277110589
 30
0.0
 11
35.63281970860509
 21
14.81515647053226
 31
0.0
  0
LINE
  5
112B
330
1F
100
AcDbEntity
  8
Cut
100
AcDbLine
 10
35.63281970860509
 20
14.81515647053226
 30
0.0
 11
35.79656022632917
 21
14.80946304878489
 31
0.0
  0
LINE
  5
112C
330
1F
100
AcDbEntity
  8
Cut
100
AcDbLine
 10
35.79656022632917
 20
14.80946304878489
 30
0.0
 11
35.95943055850452
 21
14.82073359983884
 31
0.0
  0
LINE
  5
112D
330
1F
100
AcDbEntity
  8
Cut
100
AcDbLine
 10
35.95943055850452
 20
14.82073359983884
 30
0.0
 11
36.08540516513806
 21
14.84945436834548
 31
0.0
  0
LINE
  5
112E
330
1F
100
AcDbEntity
  8
Cut
100
AcDbLine
 10
36.08540516513806
 20
14.84945436834548
 30
0.0
 11
36.1831344348977
 21
14.87142028085012
 31
0.0
  0
LINE
  5
112F
330
1F
100
AcDbEntity
  8
Cut
100
AcDbLine
 10
36.1831344348977
 20
14.87142028085012
 30
0.0
 11
36.31814127148122
 21
14.88096791385855
 31
0.0
  0
LINE
  5
1130
330
1F
100
AcDbEntity
  8
Cut
100
AcDbLine
 10
36.31814127148122
 20
14.88096791385855
 30
0.0
 11
36.53440487246743
 21
14.88182657776848
 31
0.0
  0
LINE
  5
1131
330
1F
100
AcDbEntity
  8
Cut
100
AcDbLine
 10
36.53440487246743
 20
14.88182657776848
 30
0.0
 11
36.96054696068694
 21
14.87249725225776
 31
0.0
  0
LINE
  5
1132
330
1F
100
AcDbEntity
  8
Cut
100
AcDbLine
 10
36.96054696068694
 20
14.87249725225776
 30
0.0
 11
37.71162655792593
 21
14.85341993795145
 31
0.0
  0
LINE
  5
1133
330
1F
100
AcDbEntity
  8
Cut
100
AcDbLine
 10
37.71162655792593
 20
14.85341993795145
 30
0.0
 11
37.74610476020048
 21
14.77552825318745
 31
0.0
  0
LINE
  5
1134
330
1F
100
AcDbEntity
  8
Cut
100
AcDbLine
 10
37.74610476020048
 20
14.77552825318745
 30
0.0
 11
37.87579686689581
 21
14.64294689216403
 31
0.0
  0
LINE
  5
1135
330
1F
100
AcDbEntity
  8
Cut
100
AcDbLine
 10
37.87579686689581
 20
14.64294689216403
 30
0.0
 11
38.09093145226088
 21
14.59595569149941
 31
0.0
  0
LINE
  5
1136
330
1F
100
AcDbEntity
  8
Cut
100
AcDbLine
 10
38.09093145226088
 20
14.59595569149941
 30
0.0
 11
38.38087278391866
 21
14.64294770576495
 31
0.0
  0
LINE
  5
1137
330
1F
100
AcDbEntity
  8
Cut
100
AcDbLine
 10
38.38087278391866
 20
14.64294770576495
 30
0.0
 11
38.72470289359106
 21
14.78399534544229
 31
0.0
  0
LINE
  5
1138
330
1F
100
AcDbEntity
  8
Cut
100
AcDbLine
 10
38.72470289359106
 20
14.78399534544229
 30
0.0
 11
38.92771873582341
 21
14.88606971651316
 31
0.0
  0
LINE
  5
1139
330
1F
100
AcDbEntity
  8
Cut
100
AcDbLine
 10
38.92771873582341
 20
14.88606971651316
 30
0.0
 11
40.38490942025248
 21
14.88606971651316
 31
0.0
  0
LINE
  5
113A
330
1F
100
AcDbEntity
  8
Cut
100
AcDbLine
 10
40.38490942025248
 20
14.88606971651316
 30
0.0
 11
41.84210007843636
 21
14.88606971651316
 31
0.0
  0
LINE
  5
113B
330
1F
100
AcDbEntity
  8
Cut
100
AcDbLine
 10
41.84210007843636
 20
14.88606971651316
 30
0.0
 11
41.84210007843636
 21
15.975245137915
 31
0.0
  0
LINE
  5
113C
330
1F
100
AcDbEntity
  8
Cut
100
AcDbLine
 10
41.84210007843636
 20
15.975245137915
 30
0.0
 11
41.84210007843636
 21
17.06442055931684
 31
0.0
  0
LINE
  5
113D
330
1F
100
AcDbEntity
  8
Cut
100
AcDbLine
 10
41.84210007843636
 20
17.06442055931684
 30
0.0
 11
41.43631121447766
 21
17.06442055931684
 31
0.0
  0
LINE
  5
113E
330
1F
100
AcDbEntity
  8
Cut
100
AcDbLine
 10
41.43631121447766
 20
17.06442055931684
 30
0.0
 11
41.03052235051896
 21
17.06442055931684
 31
0.0
  0
LINE
  5
113F
330
1F
100
AcDbEntity
  8
Cut
100
AcDbLine
 10
41.03052235051896
 20
17.06442055931684
 30
0.0
 11
41.0025651595957
 21
17.17596262054474
 31
0.0
  0
LINE
  5
1140
330
1F
100
AcDbEntity
  8
Cut
100
AcDbLine
 10
41.0025651595957
 20
17.17596262054474
 30
0.0
 11
40.88773817154205
 21
17.56314225317642
 31
0.0
  0
LINE
  5
1141
330
1F
100
AcDbEntity
  8
Cut
100
AcDbLine
 10
40.88773817154205
 20
17.56314225317642
 30
0.0
 11
40.73978271889027
 21
17.9410995356954
 31
0.0
  0
LINE
  5
1142
330
1F
100
AcDbEntity
  8
Cut
100
AcDbLine
 10
40.73978271889027
 20
17.9410995356954
 30
0.0
 11
40.56374751027383
 21
18.29813037273962
 31
0.0
  0
LINE
  5
1143
330
1F
100
AcDbEntity
  8
Cut
100
AcDbLine
 10
40.56374751027383
 20
18.29813037273962
 30
0.0
 11
40.3648274137942
 21
18.6226032893902
 31
0.0
  0
LINE
  5
1144
330
1F
100
AcDbEntity
  8
Cut
100
AcDbLine
 10
40.3648274137942
 20
18.6226032893902
 30
0.0
 11
40.18831333542502
 21
18.85395648413567
 31
0.0
  0
LINE
  5
1145
330
1F
100
AcDbEntity
  8
Cut
100
AcDbLine
 10
40.18831333542502
 20
18.85395648413567
 30
0.0
 11
39.94392074249606
 21
19.12630130764681
 31
0.0
  0
LINE
  5
1146
330
1F
100
AcDbEntity
  8
Cut
100
AcDbLine
 10
39.94392074249606
 20
19.12630130764681
 30
0.0
 11
39.68519496845413
 21
19.38519898768899
 31
0.0
  0
LINE
  5
1147
330
1F
100
AcDbEntity
  8
Cut
100
AcDbLine
 10
39.68519496845413
 20
19.38519898768899
 30
0.0
 11
39.46355128705443
 21
19.57426737437868
 31
0.0
  0
LINE
  5
1148
330
1F
100
AcDbEntity
  8
Cut
100
AcDbLine
 10
39.46355128705443
 20
19.57426737437868
 30
0.0
 11
39.32520889667195
 21
19.68601548660016
 31
0.0
  0
LINE
  5
1149
330
1F
100
AcDbEntity
  8
Cut
100
AcDbLine
 10
39.32520889667195
 20
19.68601548660016
 30
0.0
 11
39.29276306948854
 21
19.74186682749819
 31
0.0
  0
LINE
  5
114A
330
1F
100
AcDbEntity
  8
Cut
100
AcDbLine
 10
39.29276306948854
 20
19.74186682749819
 30
0.0
 11
39.30129380633125
 21
19.8074357127704
 31
0.0
  0
LINE
  5
114B
330
1F
100
AcDbEntity
  8
Cut
100
AcDbLine
 10
39.30129380633125
 20
19.8074357127704
 30
0.0
 11
39.38720578522059
 21
19.97763674668079
 31
0.0
  0
LINE
  5
114C
330
1F
100
AcDbEntity
  8
Cut
100
AcDbLine
 10
39.38720578522059
 20
19.97763674668079
 30
0.0
 11
39.49546446808899
 21
20.18358055489778
 31
0.0
  0
LINE
  5
114D
330
1F
100
AcDbEntity
  8
Cut
100
AcDbLine
 10
39.49546446808899
 20
20.18358055489778
 30
0.0
 11
39.57319540105886
 21
20.33789524354428
 31
0.0
  0
LINE
  5
114E
330
1F
100
AcDbEntity
  8
Cut
100
AcDbLine
 10
39.57319540105886
 20
20.33789524354428
 30
0.0
 11
39.63006447796873
 21
20.45665111042706
 31
0.0
  0
LINE
  5
114F
330
1F
100
AcDbEntity
  8
Cut
100
AcDbLine
 10
39.63006447796873
 20
20.45665111042706
 30
0.0
 11
39.63719891816639
 21
20.48941796878528
 31
0.0
  0
LINE
  5
1150
330
1F
100
AcDbEntity
  8
Cut
100
AcDbLine
 10
39.63719891816639
 20
20.48941796878528
 30
0.0
 11
39.62933609518632
 21
20.50273548725649
 31
0.0
  0
LINE
  5
1151
330
1F
100
AcDbEntity
  8
Cut
100
AcDbLine
 10
39.62933609518632
 20
20.50273548725649
 30
0.0
 11
39.57897065531138
 21
20.52970911340644
 31
0.0
  0
LINE
  5
1152
330
1F
100
AcDbEntity
  8
Cut
100
AcDbLine
 10
39.57897065531138
 20
20.52970911340644
 30
0.0
 11
39.51509190784127
 21
20.55944137156949
 31
0.0
  0
LINE
  5
1153
330
1F
100
AcDbEntity
  8
Cut
100
AcDbLine
 10
39.51509190784127
 20
20.55944137156949
 30
0.0
 11
39.4393454524892
 21
20.5897243588179
 31
0.0
  0
LINE
  5
1154
330
1F
100
AcDbEntity
  8
Cut
100
AcDbLine
 10
39.4393454524892
 20
20.5897243588179
 30
0.0
 11
39.34940121496388
 21
20.62827486988972
 31
0.0
  0
LINE
  5
1155
330
1F
100
AcDbEntity
  8
Cut
100
AcDbLine
 10
39.34940121496388
 20
20.62827486988972
 30
0.0
 11
39.2414701508132
 21
20.68387819373396
 31
0.0
  0
LINE
  5
1156
330
1F
100
AcDbEntity
  8
Cut
100
AcDbLine
 10
39.2414701508132
 20
20.68387819373396
 30
0.0
 11
39.13360291496672
 21
20.74628815534181
 31
0.0
  0
LINE
  5
1157
330
1F
100
AcDbEntity
  8
Cut
100
AcDbLine
 10
39.13360291496672
 20
20.74628815534181
 30
0.0
 11
39.04319382262059
 21
20.80624718355441
 31
0.0
  0
LINE
  5
1158
330
1F
100
AcDbEntity
  8
Cut
100
AcDbLine
 10
39.04319382262059
 20
20.80624718355441
 30
0.0
 11
38.90591982146833
 21
20.90289654244502
 31
0.0
  0
LINE
  5
1159
330
1F
100
AcDbEntity
  8
Cut
100
AcDbLine
 10
38.90591982146833
 20
20.90289654244502
 30
0.0
 11
38.84561343815447
 21
20.93684758381562
 31
0.0
  0
LINE
  5
115A
330
1F
100
AcDbEntity
  8
Cut
100
AcDbLine
 10
38.84561343815447
 20
20.93684758381562
 30
0.0
 11
38.81291227150902
 21
20.93896438968581
 31
0.0
  0
LINE
  5
115B
330
1F
100
AcDbEntity
  8
Cut
100
AcDbLine
 10
38.81291227150902
 20
20.93896438968581
 30
0.0
 11
38.79202923557998
 21
20.91870011037689
 31
0.0
  0
LINE
  5
115C
330
1F
100
AcDbEntity
  8
Cut
100
AcDbLine
 10
38.79202923557998
 20
20.91870011037689
 30
0.0
 11
38.78358880843908
 21
20.9069386167824
 31
0.0
  0
LINE
  5
115D
330
1F
100
AcDbEntity
  8
Cut
100
AcDbLine
 10
38.78358880843908
 20
20.9069386167824
 30
0.0
 11
38.77045083331865
 21
20.90282673023729
 31
0.0
  0
LINE
  5
115E
330
1F
100
AcDbEntity
  8
Cut
100
AcDbLine
 10
38.77045083331865
 20
20.90282673023729
 30
0.0
 11
38.75049564362268
 21
20.90729602379176
 31
0.0
  0
LINE
  5
115F
330
1F
100
AcDbEntity
  8
Cut
100
AcDbLine
 10
38.75049564362268
 20
20.90729602379176
 30
0.0
 11
38.72047201135052
 21
20.92163427022658
 31
0.0
  0
LINE
  5
1160
330
1F
100
AcDbEntity
  8
Cut
100
AcDbLine
 10
38.72047201135052
 20
20.92163427022658
 30
0.0
 11
38.62402421552585
 21
20.96448445218422
 31
0.0
  0
LINE
  5
1161
330
1F
100
AcDbEntity
  8
Cut
100
AcDbLine
 10
38.62402421552585
 20
20.96448445218422
 30
0.0
 11
38.4300848788805
 21
21.0315390252216
 31
0.0
  0
LINE
  5
1162
330
1F
100
AcDbEntity
  8
Cut
100
AcDbLine
 10
38.4300848788805
 20
21.0315390252216
 30
0.0
 11
38.23015040577347
 21
21.09623389314722
 31
0.0
  0
LINE
  5
1163
330
1F
100
AcDbEntity
  8
Cut
100
AcDbLine
 10
38.23015040577347
 20
21.09623389314722
 30
0.0
 11
38.16541750856627
 21
21.10617995439836
 31
0.0
  0
LINE
  5
1164
330
1F
100
AcDbEntity
  8
Cut
100
AcDbLine
 10
38.16541750856627
 20
21.10617995439836
 30
0.0
 11
38.13109173836033
 21
21.08950948156663
 31
0.0
  0
LINE
  5
1165
330
1F
100
AcDbEntity
  8
Cut
100
AcDbLine
 10
38.13109173836033
 20
21.08950948156663
 30
0.0
 11
38.09691076287247
 21
21.03439610294568
 31
0.0
  0
LINE
  5
1166
330
1F
100
AcDbEntity
  8
Cut
100
AcDbLine
 10
38.09691076287247
 20
21.03439610294568
 30
0.0
 11
38.07141334997378
 21
20.96246848033737
 31
0.0
  0
LINE
  5
1167
330
1F
100
AcDbEntity
  8
Cut
100
AcDbLine
 10
38.07141334997378
 20
20.96246848033737
 30
0.0
 11
38.06279259212636
 21
20.89025943054729
 31
0.0
  0
LINE
  5
1168
330
1F
100
AcDbEntity
  8
Cut
100
AcDbLine
 10
38.06279259212636
 20
20.89025943054729
 30
0.0
 11
38.05054991920233
 21
20.8800689740787
 31
0.0
  0
LINE
  5
1169
330
1F
100
AcDbEntity
  8
Cut
100
AcDbLine
 10
38.05054991920233
 20
20.8800689740787
 30
0.0
 11
38.02280612792609
 21
20.89213283851729
 31
0.0
  0
LINE
  5
116A
330
1F
100
AcDbEntity
  8
Cut
100
AcDbLine
 10
38.02280612792609
 20
20.89213283851729
 30
0.0
 11
37.97118406831196
 21
20.93604673806119
 31
0.0
  0
LINE
  5
116B
330
1F
100
AcDbEntity
  8
Cut
100
AcDbLine
 10
37.97118406831196
 20
20.93604673806119
 30
0.0
 11
37.88563755370559
 21
21.02157669195212
 31
0.0
  0
LINE
  5
116C
330
1F
100
AcDbEntity
  8
Cut
100
AcDbLine
 10
37.88563755370559
 20
21.02157669195212
 30
0.0
 11
37.72215389766462
 21
21.16725311720889
 31
0.0
  0
LINE
  5
116D
330
1F
100
AcDbEntity
  8
Cut
100
AcDbLine
 10
37.72215389766462
 20
21.16725311720889
 30
0.0
 11
37.56754891096183
 21
21.2576841505346
 31
0.0
  0
LINE
  5
116E
330
1F
100
AcDbEntity
  8
Cut
100
AcDbLine
 10
37.56754891096183
 20
21.2576841505346
 30
0.0
 11
37.39072532305663
 21
21.30831403695281
 31
0.0
  0
LINE
  5
116F
330
1F
100
AcDbEntity
  8
Cut
100
AcDbLine
 10
37.39072532305663
 20
21.30831403695281
 30
0.0
 11
37.1573335068646
 21
21.33077818816106
 31
0.0
  0
LINE
  5
1170
330
1F
100
AcDbEntity
  8
Cut
100
AcDbLine
 10
37.1573335068646
 20
21.33077818816106
 30
0.0
 11
37.0272684297617
 21
21.33186602507772
 31
0.0
  0
LINE
  5
1171
330
1F
100
AcDbEntity
  8
Cut
100
AcDbLine
 10
37.0272684297617
 20
21.33186602507772
 30
0.0
 11
36.92154248654852
 21
21.3245637468844
 31
0.0
  0
LINE
  5
1172
330
1F
100
AcDbEntity
  8
Cut
100
AcDbLine
 10
36.92154248654852
 20
21.3245637468844
 30
0.0
 11
36.8161676252537
 21
21.30665305755777
 31
0.0
  0
LINE
  5
1173
330
1F
100
AcDbEntity
  8
Cut
100
AcDbLine
 10
36.8161676252537
 20
21.30665305755777
 30
0.0
 11
36.68699491088583
 21
21.27455083241333
 31
0.0
  0
LINE
  5
1174
330
1F
100
AcDbEntity
  8
Cut
100
AcDbLine
 10
36.38649382667862
 20
20.90277972510043
 30
0.0
 11
36.34358989457006
 21
20.6993794958025
 31
0.0
  0
LINE
  5
1175
330
1F
100
AcDbEntity
  8
Cut
100
AcDbLine
 10
36.34358989457006
 20
20.6993794958025
 30
0.0
 11
36.22555789629687
 21
20.68303459456359
 31
0.0
  0
LINE
  5
1176
330
1F
100
AcDbEntity
  8
Cut
100
AcDbLine
 10
36.22555789629687
 20
20.68303459456359
 30
0.0
 11
36.17942824651317
 21
20.67759601361965
 31
0.0
  0
LINE
  5
1177
330
1F
100
AcDbEntity
  8
Cut
100
AcDbLine
 10
36.17942824651317
 20
20.67759601361965
 30
0.0
 11
36.13852823970884
 21
20.67482215939584
 31
0.0
  0
LINE
  5
1178
330
1F
100
AcDbEntity
  8
Cut
100
AcDbLine
 10
36.13852823970884
 20
20.67482215939584
 30
0.0
 11
36.10486573796675
 21
20.67421875621239
 31
0.0
  0
LINE
  5
1179
330
1F
100
AcDbEntity
  8
Cut
100
AcDbLine
 10
36.10486573796675
 20
20.67421875621239
 30
0.0
 11
36.09503384329592
 21
20.67802982037966
 31
0.0
  0
LINE
  5
117A
330
1F
100
AcDbEntity
  8
Cut
100
AcDbLine
 10
36.09503384329592
 20
20.67802982037966
 30
0.0
 11
36.09267812745317
 21
20.68755378022593
 31
0.0
  0
LINE
  5
117B
330
1F
100
AcDbEntity
  8
Cut
100
AcDbLine
 10
36.09267812745317
 20
20.68755378022593
 30
0.0
 11
36.10827532944917
 21
20.72818049585765
 31
0.0
  0
LINE
  5
117C
330
1F
100
AcDbEntity
  8
Cut
100
AcDbLine
 10
36.10827532944917
 20
20.72818049585765
 30
0.0
 11
36.12976281836931
 21
20.77702051274842
 31
0.0
  0
LINE
  5
117D
330
1F
100
AcDbEntity
  8
Cut
100
AcDbLine
 10
36.12976281836931
 20
20.77702051274842
 30
0.0
 11
36.15765329401736
 21
20.83283104237464
 31
0.0
  0
LINE
  5
117E
330
1F
100
AcDbEntity
  8
Cut
100
AcDbLine
 10
36.15765329401736
 20
20.83283104237464
 30
0.0
 11
36.21639575265203
 21
20.92855588817142
 31
0.0
  0
LINE
  5
117F
330
1F
100
AcDbEntity
  8
Cut
100
AcDbLine
 10
36.21639575265203
 20
20.92855588817142
 30
0.0
 11
36.28937675224139
 21
21.01875808967787
 31
0.0
  0
LINE
  5
1180
330
1F
100
AcDbEntity
  8
Cut
100
AcDbLine
 10
36.28937675224139
 20
21.01875808967787
 30
0.0
 11
36.36120915729719
 21
21.08862297150918
 31
0.0
  0
LINE
  5
1181
330
1F
100
AcDbEntity
  8
Cut
100
AcDbLine
 10
36.36120915729719
 20
21.08862297150918
 30
0.0
 11
36.40826271653534
 21
21.10617995439836
 31
0.0
  0
LINE
  5
1182
330
1F
100
AcDbEntity
  8
Cut
100
AcDbLine
 10
36.40826271653534
 20
21.10617995439836
 30
0.0
 11
36.41512604391124
 21
21.098846733125
 31
0.0
  0
LINE
  5
1183
330
1F
100
AcDbEntity
  8
Cut
100
AcDbLine
 10
36.41512604391124
 20
21.098846733125
 30
0.0
 11
36.41058628201927
 21
21.0464311239195
 31
0.0
  0
LINE
  5
1184
330
1F
100
AcDbEntity
  8
Cut
100
AcDbLine
 10
36.41058628201927
 20
21.0464311239195
 30
0.0
 11
36.40143077840773
 21
20.98078261073817
 31
0.0
  0
LINE
  5
1185
330
1F
100
AcDbEntity
  8
Cut
100
AcDbLine
 10
36.40143077840773
 20
20.98078261073817
 30
0.0
 11
36.38649382667862
 21
20.90277972510043
 31
0.0
  0
LINE
  5
1186
330
1F
100
AcDbEntity
  8
Cut
100
AcDbLine
 10
38.19862258287657
 20
20.8927355330806
 30
0.0
 11
38.15513351423739
 21
20.83330035887791
 31
0.0
  0
LINE
  5
1187
330
1F
100
AcDbEntity
  8
Cut
100
AcDbLine
 10
38.15513351423739
 20
20.83330035887791
 30
0.0
 11
38.13818835923794
 21
20.81911050275231
 31
0.0
  0
LINE
  5
1188
330
1F
100
AcDbEntity
  8
Cut
100
AcDbLine
 10
38.13818835923794
 20
20.81911050275231
 30
0.0
 11
38.12750793130087
 21
20.8235101415702
 31
0.0
  0
LINE
  5
1189
330
1F
100
AcDbEntity
  8
Cut
100
AcDbLine
 10
38.12750793130087
 20
20.8235101415702
 30
0.0
 11
38.12058539477434
 21
20.85343892372253
 31
0.0
  0
LINE
  5
118A
330
1F
100
AcDbEntity
  8
Cut
100
AcDbLine
 10
38.12058539477434
 20
20.85343892372253
 30
0.0
 11
38.11950285938624
 21
20.8811259466509
 31
0.0
  0
LINE
  5
118B
330
1F
100
AcDbEntity
  8
Cut
100
AcDbLine
 10
38.11950285938624
 20
20.8811259466509
 30
0.0
 11
38.1230075634404
 21
20.91599475610128
 31
0.0
  0
LINE
  5
118C
330
1F
100
AcDbEntity
  8
Cut
100
AcDbLine
 10
38.1230075634404
 20
20.91599475610128
 30
0.0
 11
38.13002568495209
 21
20.95201090031604
 31
0.0
  0
LINE
  5
118D
330
1F
100
AcDbEntity
  8
Cut
100
AcDbLine
 10
38.13002568495209
 20
20.95201090031604
 30
0.0
 11
38.13981264785614
 21
20.9835644697452
 31
0.0
  0
LINE
  5
118E
330
1F
100
AcDbEntity
  8
Cut
100
AcDbLine
 10
38.13981264785614
 20
20.9835644697452
 30
0.0
 11
38.15674258064488
 21
21.02264355896127
 31
0.0
  0
LINE
  5
118F
330
1F
100
AcDbEntity
  8
Cut
100
AcDbLine
 10
38.15674258064488
 20
21.02264355896127
 30
0.0
 11
38.17096647678304
 21
21.03704185439282
 31
0.0
  0
LINE
  5
1190
330
1F
100
AcDbEntity
  8
Cut
100
AcDbLine
 10
38.17096647678304
 20
21.03704185439282
 30
0.0
 11
38.18873893268933
 21
21.0377473251236
 31
0.0
  0
LINE
  5
1191
330
1F
100
AcDbEntity
  8
Cut
100
AcDbLine
 10
38.18873893268933
 20
21.0377473251236
 30
0.0
 11
38.21784986220355
 21
21.02286107910327
 31
0.0
  0
LINE
  5
1192
330
1F
100
AcDbEntity
  8
Cut
100
AcDbLine
 10
38.21784986220355
 20
21.02286107910327
 30
0.0
 11
38.24600646408709
 21
21.00090989015072
 31
0.0
  0
LINE
  5
1193
330
1F
100
AcDbEntity
  8
Cut
100
AcDbLine
 10
38.24600646408709
 20
21.00090989015072
 30
0.0
 11
38.2524506032743
 21
20.98203400768438
 31
0.0
  0
LINE
  5
1194
330
1F
100
AcDbEntity
  8
Cut
100
AcDbLine
 10
38.2524506032743
 20
20.98203400768438
 30
0.0
 11
38.24253671862718
 21
20.95630075550048
 31
0.0
  0
LINE
  5
1195
330
1F
100
AcDbEntity
  8
Cut
100
AcDbLine
 10
38.24253671862718
 20
20.95630075550048
 30
0.0
 11
38.19862258287657
 21
20.8927355330806
 31
0.0
  0
LINE
  5
1196
330
1F
100
AcDbEntity
  8
Cut
100
AcDbLine
 10
38.7410715729729
 20
20.7912020753937
 30
0.0
 11
38.74485544712243
 21
20.75329861325777
 31
0.0
  0
LINE
  5
1197
330
1F
100
AcDbEntity
  8
Cut
100
AcDbLine
 10
38.74485544712243
 20
20.75329861325777
 30
0.0
 11
38.73756602907263
 21
20.74689945832772
 31
0.0
  0
LINE
  5
1198
330
1F
100
AcDbEntity
  8
Cut
100
AcDbLine
 10
38.73756602907263
 20
20.74689945832772
 30
0.0
 11
38.72170771367259
 21
20.75444579055101
 31
0.0
  0
LINE
  5
1199
330
1F
100
AcDbEntity
  8
Cut
100
AcDbLine
 10
38.72170771367259
 20
20.75444579055101
 30
0.0
 11
38.66171561651949
 21
20.80603819309946
 31
0.0
  0
LINE
  5
119A
330
1F
100
AcDbEntity
  8
Cut
100
AcDbLine
 10
38.66171561651949
 20
20.80603819309946
 30
0.0
 11
38.62312109226257
 21
20.83888688396283
 31
0.0
  0
LINE
  5
119B
330
1F
100
AcDbEntity
  8
Cut
100
AcDbLine
 10
38.62312109226257
 20
20.83888688396283
 30
0.0
 11
38.58020385384224
 21
20.87388495097827
 31
0.0
  0
LINE
  5
119C
330
1F
100
AcDbEntity
  8
Cut
100
AcDbLine
 10
38.58020385384224
 20
20.87388495097827
 30
0.0
 11
38.5394422641746
 21
20.90589678768534
 31
0.0
  0
LINE
  5
119D
330
1F
100
AcDbEntity
  8
Cut
100
AcDbLine
 10
38.5394422641746
 20
20.90589678768534
 30
0.0
 11
38.50834045321601
 21
20.92879726519191
 31
0.0
  0
LINE
  5
119E
330
1F
100
AcDbEntity
  8
Cut
100
AcDbLine
 10
38.50834045321601
 20
20.92879726519191
 30
0.0
 11
38.48934169076599
 21
20.94498251693471
 31
0.0
  0
LINE
  5
119F
330
1F
100
AcDbEntity
  8
Cut
100
AcDbLine
 10
38.48934169076599
 20
20.94498251693471
 30
0.0
 11
38.49194138190314
 21
20.94983787724698
 31
0.0
  0
LINE
  5
11A0
330
1F
100
AcDbEntity
  8
Cut
100
AcDbLine
 10
38.49194138190314
 20
20.94983787724698
 30
0.0
 11
38.51977277962652
 21
20.94176336055729
 31
0.0
  0
LINE
  5
11A1
330
1F
100
AcDbEntity
  8
Cut
100
AcDbLine
 10
38.51977277962652
 20
20.94176336055729
 30
0.0
 11
38.58769640966942
 21
20.91396114748616
 31
0.0
  0
LINE
  5
11A2
330
1F
100
AcDbEntity
  8
Cut
100
AcDbLine
 10
38.58769640966942
 20
20.91396114748616
 30
0.0
 11
38.65890688243701
 21
20.88126882547003
 31
0.0
  0
LINE
  5
11A3
330
1F
100
AcDbEntity
  8
Cut
100
AcDbLine
 10
38.65890688243701
 20
20.88126882547003
 30
0.0
 11
38.70297890925594
 21
20.85306191155558
 31
0.0
  0
LINE
  5
11A4
330
1F
100
AcDbEntity
  8
Cut
100
AcDbLine
 10
38.70297890925594
 20
20.85306191155558
 30
0.0
 11
38.72876047883625
 21
20.82434303270268
 31
0.0
  0
LINE
  5
11A5
330
1F
100
AcDbEntity
  8
Cut
100
AcDbLine
 10
38.72876047883625
 20
20.82434303270268
 30
0.0
 11
38.7410715729729
 21
20.7912020753937
 31
0.0
  0
LINE
  5
11A6
330
1F
100
AcDbEntity
  8
Cut
100
AcDbLine
 10
38.87599161671019
 20
20.79779896159182
 30
0.0
 11
38.8695399451532
 21
20.75574091198523
 31
0.0
  0
LINE
  5
11A7
330
1F
100
AcDbEntity
  8
Cut
100
AcDbLine
 10
38.8695399451532
 20
20.75574091198523
 30
0.0
 11
38.85131352618032
 21
20.71478705004922
 31
0.0
  0
LINE
  5
11A8
330
1F
100
AcDbEntity
  8
Cut
100
AcDbLine
 10
38.85131352618032
 20
20.71478705004922
 30
0.0
 11
38.82926764457908
 21
20.68929420381375
 31
0.0
  0
LINE
  5
11A9
330
1F
100
AcDbEntity
  8
Cut
100
AcDbLine
 10
38.82926764457908
 20
20.68929420381375
 30
0.0
 11
38.81122491569715
 21
20.69018669777472
 31
0.0
  0
LINE
  5
11AA
330
1F
100
AcDbEntity
  8
Cut
100
AcDbLine
 10
38.81122491569715
 20
20.69018669777472
 30
0.0
 11
38.80608269544859
 21
20.7103374666331
 31
0.0
  0
LINE
  5
11AB
330
1F
100
AcDbEntity
  8
Cut
100
AcDbLine
 10
38.80608269544859
 20
20.7103374666331
 30
0.0
 11
38.82653462787228
 21
20.7723747202853
 31
0.0
  0
LINE
  5
11AC
330
1F
100
AcDbEntity
  8
Cut
100
AcDbLine
 10
38.82653462787228
 20
20.7723747202853
 30
0.0
 11
38.85096808697799
 21
20.83296226832903
 31
0.0
  0
LINE
  5
11AD
330
1F
100
AcDbEntity
  8
Cut
100
AcDbLine
 10
38.85096808697799
 20
20.83296226832903
 30
0.0
 11
38.86748366069317
 21
20.84372804562684
 31
0.0
  0
LINE
  5
11AE
330
1F
100
AcDbEntity
  8
Cut
100
AcDbLine
 10
38.86748366069317
 20
20.84372804562684
 30
0.0
 11
38.87093779026451
 21
20.84119068681802
 31
0.0
  0
LINE
  5
11AF
330
1F
100
AcDbEntity
  8
Cut
100
AcDbLine
 10
38.87093779026451
 20
20.84119068681802
 30
0.0
 11
38.8736581830345
 21
20.83023636406895
 31
0.0
  0
LINE
  5
11B0
330
1F
100
AcDbEntity
  8
Cut
100
AcDbLine
 10
38.8736581830345
 20
20.83023636406895
 30
0.0
 11
38.87550264255896
 21
20.81540470804565
 31
0.0
  0
LINE
  5
11B1
330
1F
100
AcDbEntity
  8
Cut
100
AcDbLine
 10
38.87550264255896
 20
20.81540470804565
 30
0.0
 11
38.87599161671019
 21
20.79779896159182
 31
0.0
  0
LINE
  5
11B2
330
1F
100
AcDbEntity
  8
Cut
100
AcDbLine
 10
38.69923847089732
 20
20.58928010647193
 30
0.0
 11
38.72688384270776
 21
20.58215760783611
 31
0.0
  0
LINE
  5
11B3
330
1F
100
AcDbEntity
  8
Cut
100
AcDbLine
 10
38.72688384270776
 20
20.58215760783611
 30
0.0
 11
38.75021153943144
 21
20.57277253753997
 31
0.0
  0
LINE
  5
11B4
330
1F
100
AcDbEntity
  8
Cut
100
AcDbLine
 10
38.75021153943144
 20
20.57277253753997
 30
0.0
 11
38.766805402551
 21
20.56265640745194
 31
0.0
  0
LINE
  5
11B5
330
1F
100
AcDbEntity
  8
Cut
100
AcDbLine
 10
38.766805402551
 20
20.56265640745194
 30
0.0
 11
38.77141274580949
 21
20.5535374371461
 31
0.0
  0
LINE
  5
11B6
330
1F
100
AcDbEntity
  8
Cut
100
AcDbLine
 10
38.77141274580949
 20
20.5535374371461
 30
0.0
 11
38.75562697211704
 21
20.52242528558231
 31
0.0
  0
LINE
  5
11B7
330
1F
100
AcDbEntity
  8
Cut
100
AcDbLine
 10
38.75562697211704
 20
20.52242528558231
 30
0.0
 11
38.67377142368449
 21
20.46680881289743
 31
0.0
  0
LINE
  5
11B8
330
1F
100
AcDbEntity
  8
Cut
100
AcDbLine
 10
38.67377142368449
 20
20.46680881289743
 30
0.0
 11
38.55013022448145
 21
20.39467503431479
 31
0.0
  0
LINE
  5
11B9
330
1F
100
AcDbEntity
  8
Cut
100
AcDbLine
 10
38.55013022448145
 20
20.39467503431479
 30
0.0
 11
38.36339884081342
 21
20.29666780173857
 31
0.0
  0
LINE
  5
11BA
330
1F
100
AcDbEntity
  8
Cut
100
AcDbLine
 10
38.36339884081342
 20
20.29666780173857
 30
0.0
 11
38.15174696603256
 21
20.17549787595372
 31
0.0
  0
LINE
  5
11BB
330
1F
100
AcDbEntity
  8
Cut
100
AcDbLine
 10
38.15174696603256
 20
20.17549787595372
 30
0.0
 11
37.98070298908157
 21
20.04845207185454
 31
0.0
  0
LINE
  5
11BC
330
1F
100
AcDbEntity
  8
Cut
100
AcDbLine
 10
37.98070298908157
 20
20.04845207185454
 30
0.0
 11
37.84704583768409
 21
19.91327327678038
 31
0.0
  0
LINE
  5
11BD
330
1F
100
AcDbEntity
  8
Cut
100
AcDbLine
 10
37.84704583768409
 20
19.91327327678038
 30
0.0
 11
37.74806070929579
 21
19.76767521966357
 31
0.0
  0
LINE
  5
11BE
330
1F
100
AcDbEntity
  8
Cut
100
AcDbLine
 10
37.74806070929579
 20
19.76767521966357
 30
0.0
 11
37.68703226829052
 21
19.65840659560503
 31
0.0
  0
LINE
  5
11BF
330
1F
100
AcDbEntity
  8
Cut
100
AcDbLine
 10
37.68703226829052
 20
19.65840659560503
 30
0.0
 11
37.67270651456656
 21
19.65946070745142
 31
0.0
  0
LINE
  5
11C0
330
1F
100
AcDbEntity
  8
Cut
100
AcDbLine
 10
37.67270651456656
 20
19.65946070745142
 30
0.0
 11
37.67213129871811
 21
19.69126449853039
 31
0.0
  0
LINE
  5
11C1
330
1F
100
AcDbEntity
  8
Cut
100
AcDbLine
 10
37.67213129871811
 20
19.69126449853039
 30
0.0
 11
37.7230158422234
 21
19.83103423361874
 31
0.0
  0
LINE
  5
11C2
330
1F
100
AcDbEntity
  8
Cut
100
AcDbLine
 10
37.7230158422234
 20
19.83103423361874
 30
0.0
 11
37.79825796998759
 21
19.97776744773136
 31
0.0
  0
LINE
  5
11C3
330
1F
100
AcDbEntity
  8
Cut
100
AcDbLine
 10
37.79825796998759
 20
19.97776744773136
 30
0.0
 11
37.9125324442829
 21
20.1205869527352
 31
0.0
  0
LINE
  5
11C4
330
1F
100
AcDbEntity
  8
Cut
100
AcDbLine
 10
37.9125324442829
 20
20.1205869527352
 30
0.0
 11
38.06987795381709
 21
20.26402358715733
 31
0.0
  0
LINE
  5
11C5
330
1F
100
AcDbEntity
  8
Cut
100
AcDbLine
 10
38.06987795381709
 20
20.26402358715733
 30
0.0
 11
38.2760126957977
 21
20.41283101119535
 31
0.0
  0
LINE
  5
11C6
330
1F
100
AcDbEntity
  8
Cut
100
AcDbLine
 10
38.2760126957977
 20
20.41283101119535
 30
0.0
 11
38.37535273790223
 21
20.48034477009232
 31
0.0
  0
LINE
  5
11C7
330
1F
100
AcDbEntity
  8
Cut
100
AcDbLine
 10
38.37535273790223
 20
20.48034477009232
 30
0.0
 11
38.45906799431515
 21
20.54170510778142
 31
0.0
  0
LINE
  5
11C8
330
1F
100
AcDbEntity
  8
Cut
100
AcDbLine
 10
38.45906799431515
 20
20.54170510778142
 30
0.0
 11
38.52738315011555
 21
20.59526267148718
 31
0.0
  0
LINE
  5
11C9
330
1F
100
AcDbEntity
  8
Cut
100
AcDbLine
 10
38.52738315011555
 20
20.59526267148718
 30
0.0
 11
38.53520602791512
 21
20.61155865169028
 31
0.0
  0
LINE
  5
11CA
330
1F
100
AcDbEntity
  8
Cut
100
AcDbLine
 10
38.53520602791512
 20
20.61155865169028
 30
0.0
 11
38.53890124580985
 21
20.62088516896558
 31
0.0
  0
LINE
  5
11CB
330
1F
100
AcDbEntity
  8
Cut
100
AcDbLine
 10
38.53890124580985
 20
20.62088516896558
 30
0.0
 11
38.54840804130129
 21
20.62627719094091
 31
0.0
  0
LINE
  5
11CC
330
1F
100
AcDbEntity
  8
Cut
100
AcDbLine
 10
38.54840804130129
 20
20.62627719094091
 30
0.0
 11
38.56316555466036
 21
20.62659830085129
 31
0.0
  0
LINE
  5
11CD
330
1F
100
AcDbEntity
  8
Cut
100
AcDbLine
 10
38.56316555466036
 20
20.62659830085129
 30
0.0
 11
38.58113511195013
 21
20.62161389293548
 31
0.0
  0
LINE
  5
11CE
330
1F
100
AcDbEntity
  8
Cut
100
AcDbLine
 10
38.58113511195013
 20
20.62161389293548
 30
0.0
 11
38.6037824545907
 21
20.61377463813681
 31
0.0
  0
LINE
  5
11CF
330
1F
100
AcDbEntity
  8
Cut
100
AcDbLine
 10
38.6037824545907
 20
20.61377463813681
 30
0.0
 11
38.63477372080531
 21
20.60478634263634
 31
0.0
  0
LINE
  5
11D0
330
1F
100
AcDbEntity
  8
Cut
100
AcDbLine
 10
38.63477372080531
 20
20.60478634263634
 30
0.0
 11
38.66824258552911
 21
20.59615632023655
 31
0.0
  0
LINE
  5
11D1
330
1F
100
AcDbEntity
  8
Cut
100
AcDbLine
 10
38.66824258552911
 20
20.59615632023655
 30
0.0
 11
38.69923847089732
 21
20.58928010647193
 31
0.0
  0
LINE
  5
11D2
330
1F
100
AcDbEntity
  8
Cut
100
AcDbLine
 10
39.3225617542297
 20
20.57894921198695
 30
0.0
 11
39.37881682489899
 21
20.55692805335552
 31
0.0
  0
LINE
  5
11D3
330
1F
100
AcDbEntity
  8
Cut
100
AcDbLine
 10
39.37881682489899
 20
20.55692805335552
 30
0.0
 11
39.42836267995322
 21
20.53609023789036
 31
0.0
  0
LINE
  5
11D4
330
1F
100
AcDbEntity
  8
Cut
100
AcDbLine
 10
39.42836267995322
 20
20.53609023789036
 30
0.0
 11
39.4694538567279
 21
20.51765530087596
 31
0.0
  0
LINE
  5
11D5
330
1F
100
AcDbEntity
  8
Cut
100
AcDbLine
 10
39.4694538567279
 20
20.51765530087596
 30
0.0
 11
39.48003289949261
 21
20.50998663981799
 31
0.0
  0
LINE
  5
11D6
330
1F
100
AcDbEntity
  8
Cut
100
AcDbLine
 10
39.48003289949261
 20
20.50998663981799
 30
0.0
 11
39.47586823386865
 21
20.50151967878911
 31
0.0
  0
LINE
  5
11D7
330
1F
100
AcDbEntity
  8
Cut
100
AcDbLine
 10
39.47586823386865
 20
20.50151967878911
 30
0.0
 11
39.38008417892126
 21
20.51144295921457
 31
0.0
  0
LINE
  5
11D8
330
1F
100
AcDbEntity
  8
Cut
100
AcDbLine
 10
39.38008417892126
 20
20.51144295921457
 30
0.0
 11
39.24158040686007
 21
20.52986490485949
 31
0.0
  0
LINE
  5
11D9
330
1F
100
AcDbEntity
  8
Cut
100
AcDbLine
 10
39.24158040686007
 20
20.52986490485949
 30
0.0
 11
39.03386465458102
 21
20.56199088190168
 31
0.0
  0
LINE
  5
11DA
330
1F
100
AcDbEntity
  8
Cut
100
AcDbLine
 10
39.03386465458102
 20
20.56199088190168
 30
0.0
 11
38.90368194653262
 21
20.58320888520188
 31
0.0
  0
LINE
  5
11DB
330
1F
100
AcDbEntity
  8
Cut
100
AcDbLine
 10
38.90368194653262
 20
20.58320888520188
 30
0.0
 11
38.87935900592569
 21
20.59134027522021
 31
0.0
  0
LINE
  5
11DC
330
1F
100
AcDbEntity
  8
Cut
100
AcDbLine
 10
38.87935900592569
 20
20.59134027522021
 30
0.0
 11
38.88042595167042
 21
20.59886348543034
 31
0.0
  0
LINE
  5
11DD
330
1F
100
AcDbEntity
  8
Cut
100
AcDbLine
 10
38.88042595167042
 20
20.59886348543034
 30
0.0
 11
38.94200648651098
 21
20.60988247632972
 31
0.0
  0
LINE
  5
11DE
330
1F
100
AcDbEntity
  8
Cut
100
AcDbLine
 10
38.94200648651098
 20
20.60988247632972
 30
0.0
 11
39.06419267857697
 21
20.62549539919506
 31
0.0
  0
LINE
  5
11DF
330
1F
100
AcDbEntity
  8
Cut
100
AcDbLine
 10
39.06419267857697
 20
20.62549539919506
 30
0.0
 11
39.14632178063404
 21
20.62622556665045
 31
0.0
  0
LINE
  5
11E0
330
1F
100
AcDbEntity
  8
Cut
100
AcDbLine
 10
39.14632178063404
 20
20.62622556665045
 30
0.0
 11
39.22261571066781
 21
20.61226782299298
 31
0.0
  0
LINE
  5
11E1
330
1F
100
AcDbEntity
  8
Cut
100
AcDbLine
 10
39.22261571066781
 20
20.61226782299298
 30
0.0
 11
39.3225617542297
 21
20.57894921198695
 31
0.0
  0
LINE
  5
11E2
330
1F
100
AcDbEntity
  8
Cut
100
AcDbLine
 10
35.97691473723421
 20
20.49000481125329
 30
0.0
 11
35.91038076380307
 21
20.43582447541321
 31
0.0
  0
LINE
  5
11E3
330
1F
100
AcDbEntity
  8
Cut
100
AcDbLine
 10
35.91038076380307
 20
20.43582447541321
 30
0.0
 11
35.87194494421539
 21
20.4143662761261
 31
0.0
  0
LINE
  5
11E4
330
1F
100
AcDbEntity
  8
Cut
100
AcDbLine
 10
35.87194494421539
 20
20.4143662761261
 30
0.0
 11
35.86170711517726
 21
20.42242950738371
 31
0.0
  0
LINE
  5
11E5
330
1F
100
AcDbEntity
  8
Cut
100
AcDbLine
 10
35.86170711517726
 20
20.42242950738371
 30
0.0
 11
35.87155467822704
 21
20.45043128888627
 31
0.0
  0
LINE
  5
11E6
330
1F
100
AcDbEntity
  8
Cut
100
AcDbLine
 10
35.87155467822704
 20
20.45043128888627
 30
0.0
 11
35.89776947717316
 21
20.47874764524668
 31
0.0
  0
LINE
  5
11E7
330
1F
100
AcDbEntity
  8
Cut
100
AcDbLine
 10
35.89776947717316
 20
20.47874764524668
 30
0.0
 11
35.96763861072539
 21
20.52726904552021
 31
0.0
  0
LINE
  5
11E8
330
1F
100
AcDbEntity
  8
Cut
100
AcDbLine
 10
35.96763861072539
 20
20.52726904552021
 30
0.0
 11
36.04054945691954
 21
20.57345845560354
 31
0.0
  0
LINE
  5
11E9
330
1F
100
AcDbEntity
  8
Cut
100
AcDbLine
 10
36.04054945691954
 20
20.57345845560354
 30
0.0
 11
36.06815808546276
 21
20.58019260414995
 31
0.0
  0
LINE
  5
11EA
330
1F
100
AcDbEntity
  8
Cut
100
AcDbLine
 10
36.06815808546276
 20
20.58019260414995
 30
0.0
 11
36.06956627117927
 21
20.57657869385654
 31
0.0
  0
LINE
  5
11EB
330
1F
100
AcDbEntity
  8
Cut
100
AcDbLine
 10
36.06956627117927
 20
20.57657869385654
 30
0.0
 11
36.04676841236902
 21
20.55333393193604
 31
0.0
  0
LINE
  5
11EC
330
1F
100
AcDbEntity
  8
Cut
100
AcDbLine
 10
36.04676841236902
 20
20.55333393193604
 30
0.0
 11
36.01602815515996
 21
20.52433459697343
 31
0.0
  0
LINE
  5
11ED
330
1F
100
AcDbEntity
  8
Cut
100
AcDbLine
 10
36.01602815515996
 20
20.52433459697343
 30
0.0
 11
35.97691473723421
 21
20.49000481125329
 31
0.0
  0
LINE
  5
11EE
330
1F
100
AcDbEntity
  8
Cut
100
AcDbLine
 10
37.36729503388182
 20
20.480557434874
 30
0.0
 11
37.44487109398032
 21
20.46758102514861
 31
0.0
  0
LINE
  5
11EF
330
1F
100
AcDbEntity
  8
Cut
100
AcDbLine
 10
37.44487109398032
 20
20.46758102514861
 30
0.0
 11
37.48304215208243
 21
20.45163371230631
 31
0.0
  0
LINE
  5
11F0
330
1F
100
AcDbEntity
  8
Cut
100
AcDbLine
 10
37.48304215208243
 20
20.45163371230631
 30
0.0
 11
37.50742062751326
 21
20.42419079589829
 31
0.0
  0
LINE
  5
11F1
330
1F
100
AcDbEntity
  8
Cut
100
AcDbLine
 10
37.50742062751326
 20
20.42419079589829
 30
0.0
 11
37.52984614580053
 21
20.37131460983809
 31
0.0
  0
LINE
  5
11F2
330
1F
100
AcDbEntity
  8
Cut
100
AcDbLine
 10
37.52984614580053
 20
20.37131460983809
 30
0.0
 11
37.56066891788971
 21
20.22734115628176
 31
0.0
  0
LINE
  5
11F3
330
1F
100
AcDbEntity
  8
Cut
100
AcDbLine
 10
37.56066891788971
 20
20.22734115628176
 30
0.0
 11
37.55948612587245
 21
20.07216717384075
 31
0.0
  0
LINE
  5
11F4
330
1F
100
AcDbEntity
  8
Cut
100
AcDbLine
 10
37.55948612587245
 20
20.07216717384075
 30
0.0
 11
37.53022029724168
 21
19.93882255017624
 31
0.0
  0
LINE
  5
11F5
330
1F
100
AcDbEntity
  8
Cut
100
AcDbLine
 10
37.53022029724168
 20
19.93882255017624
 30
0.0
 11
37.47490808505464
 21
19.8664965780608
 31
0.0
  0
LINE
  5
11F6
330
1F
100
AcDbEntity
  8
Cut
100
AcDbLine
 10
37.47490808505464
 20
19.8664965780608
 30
0.0
 11
37.4553274142325
 21
19.85891851540174
 31
0.0
  0
LINE
  5
11F7
330
1F
100
AcDbEntity
  8
Cut
100
AcDbLine
 10
37.4553274142325
 20
19.85891851540174
 30
0.0
 11
37.40676599004289
 21
19.85276060626623
 31
0.0
  0
LINE
  5
11F8
330
1F
100
AcDbEntity
  8
Cut
100
AcDbLine
 10
37.40676599004289
 20
19.85276060626623
 30
0.0
 11
37.34784411928337
 21
19.84837574349081
 31
0.0
  0
LINE
  5
11F9
330
1F
100
AcDbEntity
  8
Cut
100
AcDbLine
 10
37.34784411928337
 20
19.84837574349081
 30
0.0
 11
37.28348637083457
 21
19.84681268490293
 31
0.0
  0
LINE
  5
11FA
330
1F
100
AcDbEntity
  8
Cut
100
AcDbLine
 10
37.28348637083457
 20
19.84681268490293
 30
0.0
 11
37.19316436003177
 21
19.84877301694512
 31
0.0
  0
LINE
  5
11FB
330
1F
100
AcDbEntity
  8
Cut
100
AcDbLine
 10
37.19316436003177
 20
19.84877301694512
 30
0.0
 11
37.14262761779597
 21
19.8570736884446
 31
0.0
  0
LINE
  5
11FC
330
1F
100
AcDbEntity
  8
Cut
100
AcDbLine
 10
37.14262761779597
 20
19.8570736884446
 30
0.0
 11
37.10854230602885
 21
19.87457697367325
 31
0.0
  0
LINE
  5
11FD
330
1F
100
AcDbEntity
  8
Cut
100
AcDbLine
 10
37.10854230602885
 20
19.87457697367325
 30
0.0
 11
37.0793106223914
 21
19.90546247176863
 31
0.0
  0
LINE
  5
11FE
330
1F
100
AcDbEntity
  8
Cut
100
AcDbLine
 10
37.0793106223914
 20
19.90546247176863
 30
0.0
 11
37.05458904358024
 21
19.94257519254862
 31
0.0
  0
LINE
  5
11FF
330
1F
100
AcDbEntity
  8
Cut
100
AcDbLine
 10
37.05458904358024
 20
19.94257519254862
 30
0.0
 11
37.05237171862899
 21
19.95725935059919
 31
0.0
  0
LINE
  5
1200
330
1F
100
AcDbEntity
  8
Cut
100
AcDbLine
 10
37.05237171862899
 20
19.95725935059919
 30
0.0
 11
37.06185040552099
 21
19.96650883823926
 31
0.0
  0
LINE
  5
1201
330
1F
100
AcDbEntity
  8
Cut
100
AcDbLine
 10
37.06185040552099
 20
19.96650883823926
 30
0.0
 11
37.09750630824577
 21
19.97346835423973
 31
0.0
  0
LINE
  5
1202
330
1F
100
AcDbEntity
  8
Cut
100
AcDbLine
 10
37.09750630824577
 20
19.97346835423973
 30
0.0
 11
37.15963712600345
 21
19.99331635857615
 31
0.0
  0
LINE
  5
1203
330
1F
100
AcDbEntity
  8
Cut
100
AcDbLine
 10
37.15963712600345
 20
19.99331635857615
 30
0.0
 11
37.20791208393464
 21
20.03099665785405
 31
0.0
  0
LINE
  5
1204
330
1F
100
AcDbEntity
  8
Cut
100
AcDbLine
 10
37.20791208393464
 20
20.03099665785405
 30
0.0
 11
37.23782002740542
 21
20.08341972069376
 31
0.0
  0
LINE
  5
1205
330
1F
100
AcDbEntity
  8
Cut
100
AcDbLine
 10
37.23782002740542
 20
20.08341972069376
 30
0.0
 11
37.24711969585045
 21
20.14573687930667
 31
0.0
  0
LINE
  5
1206
330
1F
100
AcDbEntity
  8
Cut
100
AcDbLine
 10
37.24711969585045
 20
20.14573687930667
 30
0.0
 11
37.24545939883037
 21
20.1749792447368
 31
0.0
  0
LINE
  5
1207
330
1F
100
AcDbEntity
  8
Cut
100
AcDbLine
 10
37.24545939883037
 20
20.1749792447368
 30
0.0
 11
37.24176777652679
 21
20.19346808937327
 31
0.0
  0
LINE
  5
1208
330
1F
100
AcDbEntity
  8
Cut
100
AcDbLine
 10
37.24176777652679
 20
20.19346808937327
 30
0.0
 11
37.23691065778672
 21
20.1973226943122
 31
0.0
  0
LINE
  5
1209
330
1F
100
AcDbEntity
  8
Cut
100
AcDbLine
 10
37.23691065778672
 20
20.1973226943122
 30
0.0
 11
37.23180998367532
 21
20.19415957141731
 31
0.0
  0
LINE
  5
120A
330
1F
100
AcDbEntity
  8
Cut
100
AcDbLine
 10
37.23180998367532
 20
20.19415957141731
 30
0.0
 11
37.22258485157238
 21
20.18156991082468
 31
0.0
  0
LINE
  5
120B
330
1F
100
AcDbEntity
  8
Cut
100
AcDbLine
 10
37.22258485157238
 20
20.18156991082468
 30
0.0
 11
37.2057568813502
 21
20.17088470626287
 31
0.0
  0
LINE
  5
120C
330
1F
100
AcDbEntity
  8
Cut
100
AcDbLine
 10
37.2057568813502
 20
20.17088470626287
 30
0.0
 11
37.18443988119
 21
20.16356941045487
 31
0.0
  0
LINE
  5
120D
330
1F
100
AcDbEntity
  8
Cut
100
AcDbLine
 10
37.18443988119
 20
20.16356941045487
 30
0.0
 11
37.16170771409251
 21
20.16099470473944
 31
0.0
  0
LINE
  5
120E
330
1F
100
AcDbEntity
  8
Cut
100
AcDbLine
 10
37.16170771409251
 20
20.16099470473944
 30
0.0
 11
37.08852446906226
 21
20.1553368714709
 31
0.0
  0
LINE
  5
120F
330
1F
100
AcDbEntity
  8
Cut
100
AcDbLine
 10
37.08852446906226
 20
20.1553368714709
 30
0.0
 11
37.03337943874111
 21
20.1387716156094
 31
0.0
  0
LINE
  5
1210
330
1F
100
AcDbEntity
  8
Cut
100
AcDbLine
 10
37.03337943874111
 20
20.1387716156094
 30
0.0
 11
36.99912067250749
 21
20.1128694756222
 31
0.0
  0
LINE
  5
1211
330
1F
100
AcDbEntity
  8
Cut
100
AcDbLine
 10
36.99912067250749
 20
20.1128694756222
 30
0.0
 11
36.9867397661631
 21
20.07955650733221
 31
0.0
  0
LINE
  5
1212
330
1F
100
AcDbEntity
  8
Cut
100
AcDbLine
 10
36.9867397661631
 20
20.07955650733221
 30
0.0
 11
36.98399412551949
 21
20.04375405146157
 31
0.0
  0
LINE
  5
1213
330
1F
100
AcDbEntity
  8
Cut
100
AcDbLine
 10
36.98399412551949
 20
20.04375405146157
 30
0.0
 11
36.97327031428189
 21
20.03395094776514
 31
0.0
  0
LINE
  5
1214
330
1F
100
AcDbEntity
  8
Cut
100
AcDbLine
 10
36.97327031428189
 20
20.03395094776514
 30
0.0
 11
36.95091885992328
 21
20.03753087053635
 31
0.0
  0
LINE
  5
1215
330
1F
100
AcDbEntity
  8
Cut
100
AcDbLine
 10
36.95091885992328
 20
20.03753087053635
 30
0.0
 11
36.86683205034311
 21
20.07194023167524
 31
0.0
  0
LINE
  5
1216
330
1F
100
AcDbEntity
  8
Cut
100
AcDbLine
 10
36.86683205034311
 20
20.07194023167524
 30
0.0
 11
36.80648217874797
 21
20.09226534733661
 31
0.0
  0
LINE
  5
1217
330
1F
100
AcDbEntity
  8
Cut
100
AcDbLine
 10
36.80648217874797
 20
20.09226534733661
 30
0.0
 11
36.75084659956413
 21
20.10076868420004
 31
0.0
  0
LINE
  5
1218
330
1F
100
AcDbEntity
  8
Cut
100
AcDbLine
 10
36.75084659956413
 20
20.10076868420004
 30
0.0
 11
36.68360327111397
 21
20.098960994188
 31
0.0
  0
LINE
  5
1219
330
1F
100
AcDbEntity
  8
Cut
100
AcDbLine
 10
36.68360327111397
 20
20.098960994188
 30
0.0
 11
36.58149108072304
 21
20.08604720548804
 31
0.0
  0
LINE
  5
121A
330
1F
100
AcDbEntity
  8
Cut
100
AcDbLine
 10
36.58149108072304
 20
20.08604720548804
 30
0.0
 11
36.49909761085826
 21
20.07160854495293
 31
0.0
  0
LINE
  5
121B
330
1F
100
AcDbEntity
  8
Cut
100
AcDbLine
 10
36.49909761085826
 20
20.07160854495293
 30
0.0
 11
36.40438832272248
 21
20.0509610858572
 31
0.0
  0
LINE
  5
121C
330
1F
100
AcDbEntity
  8
Cut
100
AcDbLine
 10
36.40438832272248
 20
20.0509610858572
 30
0.0
 11
36.3123620017145
 21
20.02775556049706
 31
0.0
  0
LINE
  5
121D
330
1F
100
AcDbEntity
  8
Cut
100
AcDbLine
 10
36.3123620017145
 20
20.02775556049706
 30
0.0
 11
36.23875182616425
 21
20.00551163268547
 31
0.0
  0
LINE
  5
121E
330
1F
100
AcDbEntity
  8
Cut
100
AcDbLine
 10
36.23875182616425
 20
20.00551163268547
 30
0.0
 11
36.17220598990683
 21
19.98524039840096
 31
0.0
  0
LINE
  5
121F
330
1F
100
AcDbEntity
  8
Cut
100
AcDbLine
 10
36.17220598990683
 20
19.98524039840096
 30
0.0
 11
36.10248186103419
 21
19.96801127043622
 31
0.0
  0
LINE
  5
1220
330
1F
100
AcDbEntity
  8
Cut
100
AcDbLine
 10
36.10248186103419
 20
19.96801127043622
 30
0.0
 11
36.03934015725949
 21
19.95579570879435
 31
0.0
  0
LINE
  5
1221
330
1F
100
AcDbEntity
  8
Cut
100
AcDbLine
 10
36.03934015725949
 20
19.95579570879435
 30
0.0
 11
35.99598381055058
 21
19.95203687255693
 31
0.0
  0
LINE
  5
1222
330
1F
100
AcDbEntity
  8
Cut
100
AcDbLine
 10
35.99598381055058
 20
19.95203687255693
 30
0.0
 11
35.94369339090557
 21
19.95459653977799
 31
0.0
  0
LINE
  5
1223
330
1F
100
AcDbEntity
  8
Cut
100
AcDbLine
 10
35.94369339090557
 20
19.95459653977799
 30
0.0
 11
35.9221999705723
 21
19.96659804564306
 31
0.0
  0
LINE
  5
1224
330
1F
100
AcDbEntity
  8
Cut
100
AcDbLine
 10
35.9221999705723
 20
19.96659804564306
 30
0.0
 11
35.91247226930926
 21
19.99262240948417
 31
0.0
  0
LINE
  5
1225
330
1F
100
AcDbEntity
  8
Cut
100
AcDbLine
 10
35.91247226930926
 20
19.99262240948417
 30
0.0
 11
35.91032856211841
 21
20.06293361703154
 31
0.0
  0
LINE
  5
1226
330
1F
100
AcDbEntity
  8
Cut
100
AcDbLine
 10
35.91032856211841
 20
20.06293361703154
 30
0.0
 11
35.90906545981706
 21
20.10983358941268
 31
0.0
  0
LINE
  5
1227
330
1F
100
AcDbEntity
  8
Cut
100
AcDbLine
 10
35.90906545981706
 20
20.10983358941268
 30
0.0
 11
35.90556878679131
 21
20.15851366811025
 31
0.0
  0
LINE
  5
1228
330
1F
100
AcDbEntity
  8
Cut
100
AcDbLine
 10
35.90556878679131
 20
20.15851366811025
 30
0.0
 11
35.90056689957837
 21
20.20218233259059
 31
0.0
  0
LINE
  5
1229
330
1F
100
AcDbEntity
  8
Cut
100
AcDbLine
 10
35.90056689957837
 20
20.20218233259059
 30
0.0
 11
35.89462834774822
 21
20.23167893518475
 31
0.0
  0
LINE
  5
122A
330
1F
100
AcDbEntity
  8
Cut
100
AcDbLine
 10
35.89462834774822
 20
20.23167893518475
 30
0.0
 11
35.89199359303606
 21
20.26307681814162
 31
0.0
  0
LINE
  5
122B
330
1F
100
AcDbEntity
  8
Cut
100
AcDbLine
 10
35.89199359303606
 20
20.26307681814162
 30
0.0
 11
35.90189981408745
 21
20.28779448641934
 31
0.0
  0
LINE
  5
122C
330
1F
100
AcDbEntity
  8
Cut
100
AcDbLine
 10
35.90189981408745
 20
20.28779448641934
 30
0.0
 11
35.92812526858106
 21
20.31112646110913
 31
0.0
  0
LINE
  5
122D
330
1F
100
AcDbEntity
  8
Cut
100
AcDbLine
 10
35.92812526858106
 20
20.31112646110913
 30
0.0
 11
35.9804311466435
 21
20.340482363235
 31
0.0
  0
LINE
  5
122E
330
1F
100
AcDbEntity
  8
Cut
100
AcDbLine
 10
35.9804311466435
 20
20.340482363235
 30
0.0
 11
36.02747310550728
 21
20.36249486095344
 31
0.0
  0
LINE
  5
122F
330
1F
100
AcDbEntity
  8
Cut
100
AcDbLine
 10
36.02747310550728
 20
20.36249486095344
 30
0.0
 11
36.08570685360719
 21
20.38603776824231
 31
0.0
  0
LINE
  5
1230
330
1F
100
AcDbEntity
  8
Cut
100
AcDbLine
 10
36.08570685360719
 20
20.38603776824231
 30
0.0
 11
36.14532873609778
 21
20.4074940253853
 31
0.0
  0
LINE
  5
1231
330
1F
100
AcDbEntity
  8
Cut
100
AcDbLine
 10
36.14532873609778
 20
20.4074940253853
 30
0.0
 11
36.19678356135564
 21
20.4231047436546
 31
0.0
  0
LINE
  5
1232
330
1F
100
AcDbEntity
  8
Cut
100
AcDbLine
 10
36.19678356135564
 20
20.4231047436546
 30
0.0
 11
36.42207556049399
 21
20.46451844757997
 31
0.0
  0
LINE
  5
1233
330
1F
100
AcDbEntity
  8
Cut
100
AcDbLine
 10
36.42207556049399
 20
20.46451844757997
 30
0.0
 11
36.76311496653004
 21
20.49007522710041
 31
0.0
  0
LINE
  5
1234
330
1F
100
AcDbEntity
  8
Cut
100
AcDbLine
 10
36.76311496653004
 20
20.49007522710041
 30
0.0
 11
37.11098282008333
 21
20.49794875811837
 31
0.0
  0
LINE
  5
1235
330
1F
100
AcDbEntity
  8
Cut
100
AcDbLine
 10
37.11098282008333
 20
20.49794875811837
 30
0.0
 11
37.36729503388182
 21
20.480557434874
 31
0.0
  0
LINE
  5
1236
330
1F
100
AcDbEntity
  8
Cut
100
AcDbLine
 10
39.55876847212407
 20
20.43605509190545
 30
0.0
 11
39.54950069158596
 21
20.39825388103318
 31
0.0
  0
LINE
  5
1237
330
1F
100
AcDbEntity
  8
Cut
100
AcDbLine
 10
39.54950069158596
 20
20.39825388103318
 30
0.0
 11
39.48955964132911
 21
20.28677071401361
 31
0.0
  0
LINE
  5
1238
330
1F
100
AcDbEntity
  8
Cut
100
AcDbLine
 10
39.48955964132911
 20
20.28677071401361
 30
0.0
 11
39.42750666680757
 21
20.17866330842542
 31
0.0
  0
LINE
  5
1239
330
1F
100
AcDbEntity
  8
Cut
100
AcDbLine
 10
39.42750666680757
 20
20.17866330842542
 30
0.0
 11
39.39541738054223
 21
20.14111874927473
 31
0.0
  0
LINE
  5
123A
330
1F
100
AcDbEntity
  8
Cut
100
AcDbLine
 10
39.39541738054223
 20
20.14111874927473
 30
0.0
 11
39.28678853550169
 21
20.06416651111819
 31
0.0
  0
LINE
  5
123B
330
1F
100
AcDbEntity
  8
Cut
100
AcDbLine
 10
39.28678853550169
 20
20.06416651111819
 30
0.0
 11
38.93562284248874
 21
19.85578903884155
 31
0.0
  0
LINE
  5
123C
330
1F
100
AcDbEntity
  8
Cut
100
AcDbLine
 10
38.93562284248874
 20
19.85578903884155
 30
0.0
 11
38.58185782577132
 21
19.64949341384085
 31
0.0
  0
LINE
  5
123D
330
1F
100
AcDbEntity
  8
Cut
100
AcDbLine
 10
38.58185782577132
 20
19.64949341384085
 30
0.0
 11
38.57457381423085
 21
19.65892136877889
 31
0.0
  0
LINE
  5
123E
330
1F
100
AcDbEntity
  8
Cut
100
AcDbLine
 10
38.57457381423085
 20
19.65892136877889
 30
0.0
 11
38.61184980634328
 21
19.69398706965123
 31
0.0
  0
LINE
  5
123F
330
1F
100
AcDbEntity
  8
Cut
100
AcDbLine
 10
38.61184980634328
 20
19.69398706965123
 30
0.0
 11
38.73885230587752
 21
19.80471356157262
 31
0.0
  0
LINE
  5
1240
330
1F
100
AcDbEntity
  8
Cut
100
AcDbLine
 10
38.73885230587752
 20
19.80471356157262
 30
0.0
 11
38.89040085638634
 21
19.93560181908737
 31
0.0
  0
LINE
  5
1241
330
1F
100
AcDbEntity
  8
Cut
100
AcDbLine
 10
38.89040085638634
 20
19.93560181908737
 30
0.0
 11
39.06010984545817
 21
20.08071192561539
 31
0.0
  0
LINE
  5
1242
330
1F
100
AcDbEntity
  8
Cut
100
AcDbLine
 10
39.06010984545817
 20
20.08071192561539
 30
0.0
 11
39.30910875808317
 21
20.28973117154455
 31
0.0
  0
LINE
  5
1243
330
1F
100
AcDbEntity
  8
Cut
100
AcDbLine
 10
39.30910875808317
 20
20.28973117154455
 30
0.0
 11
39.45189212345917
 21
20.39945772169352
 31
0.0
  0
LINE
  5
1244
330
1F
100
AcDbEntity
  8
Cut
100
AcDbLine
 10
39.45189212345917
 20
20.39945772169352
 30
0.0
 11
39.53540080397469
 21
20.4503158362916
 31
0.0
  0
LINE
  5
1245
330
1F
100
AcDbEntity
  8
Cut
100
AcDbLine
 10
39.53540080397469
 20
20.4503158362916
 30
0.0
 11
39.55876847212407
 21
20.43605509190545
 31
0.0
  0
LINE
  5
1246
330
1F
100
AcDbEntity
  8
Cut
100
AcDbLine
 10
36.93424938440879
 20
19.98177432726777
 30
0.0
 11
37.00090626406882
 21
19.91434279455382
 31
0.0
  0
LINE
  5
1247
330
1F
100
AcDbEntity
  8
Cut
100
AcDbLine
 10
37.00090626406882
 20
19.91434279455382
 30
0.0
 11
37.05464137649085
 21
19.81661538820273
 31
0.0
  0
LINE
  5
1248
330
1F
100
AcDbEntity
  8
Cut
100
AcDbLine
 10
37.05464137649085
 20
19.81661538820273
 30
0.0
 11
37.09825684196929
 21
19.68314938053042
 31
0.0
  0
LINE
  5
1249
330
1F
100
AcDbEntity
  8
Cut
100
AcDbLine
 10
37.09825684196929
 20
19.68314938053042
 30
0.0
 11
37.13391778377071
 21
19.50485385734007
 31
0.0
  0
LINE
  5
124A
330
1F
100
AcDbEntity
  8
Cut
100
AcDbLine
 10
37.13391778377071
 20
19.50485385734007
 30
0.0
 11
37.15562825183254
 21
19.26730330693721
 31
0.0
  0
LINE
  5
124B
330
1F
100
AcDbEntity
  8
Cut
100
AcDbLine
 10
37.15562825183254
 20
19.26730330693721
 30
0.0
 11
37.12560614178145
 21
19.10997336080121
 31
0.0
  0
LINE
  5
124C
330
1F
100
AcDbEntity
  8
Cut
100
AcDbLine
 10
37.12560614178145
 20
19.10997336080121
 30
0.0
 11
37.03992777133611
 21
19.00266611859249
 31
0.0
  0
LINE
  5
124D
330
1F
100
AcDbEntity
  8
Cut
100
AcDbLine
 10
37.03992777133611
 20
19.00266611859249
 30
0.0
 11
36.88932176436727
 21
18.9259942053197
 31
0.0
  0
LINE
  5
124E
330
1F
100
AcDbEntity
  8
Cut
100
AcDbLine
 10
36.88932176436727
 20
18.9259942053197
 30
0.0
 11
36.76110282648106
 21
18.90483703837195
 31
0.0
  0
LINE
  5
124F
330
1F
100
AcDbEntity
  8
Cut
100
AcDbLine
 10
36.76110282648106
 20
18.90483703837195
 30
0.0
 11
36.60849557121745
 21
18.91823583819932
 31
0.0
  0
LINE
  5
1250
330
1F
100
AcDbEntity
  8
Cut
100
AcDbLine
 10
36.60849557121745
 20
18.91823583819932
 30
0.0
 11
36.42408546970174
 21
18.9668393334299
 31
0.0
  0
LINE
  5
1251
330
1F
100
AcDbEntity
  8
Cut
100
AcDbLine
 10
36.42408546970174
 20
18.9668393334299
 30
0.0
 11
36.19714550878303
 21
19.05441370895459
 31
0.0
  0
LINE
  5
1252
330
1F
100
AcDbEntity
  8
Cut
100
AcDbLine
 10
36.19714550878303
 20
19.05441370895459
 30
0.0
 11
35.83278677823919
 21
19.21784765660403
 31
0.0
  0
LINE
  5
1253
330
1F
100
AcDbEntity
  8
Cut
100
AcDbLine
 10
35.83278677823919
 20
19.21784765660403
 30
0.0
 11
35.62000014014038
 21
19.33616701347214
 31
0.0
  0
LINE
  5
1254
330
1F
100
AcDbEntity
  8
Cut
100
AcDbLine
 10
35.62000014014038
 20
19.33616701347214
 30
0.0
 11
35.48712950462311
 21
19.44606134912639
 31
0.0
  0
LINE
  5
1255
330
1F
100
AcDbEntity
  8
Cut
100
AcDbLine
 10
35.48712950462311
 20
19.44606134912639
 30
0.0
 11
35.39986789303811
 21
19.5725155866232
 31
0.0
  0
LINE
  5
1256
330
1F
100
AcDbEntity
  8
Cut
100
AcDbLine
 10
35.39986789303811
 20
19.5725155866232
 30
0.0
 11
35.37897543508554
 21
19.62126928308118
 31
0.0
  0
LINE
  5
1257
330
1F
100
AcDbEntity
  8
Cut
100
AcDbLine
 10
35.37897543508554
 20
19.62126928308118
 30
0.0
 11
35.37115087759376
 21
19.65437520306034
 31
0.0
  0
LINE
  5
1258
330
1F
100
AcDbEntity
  8
Cut
100
AcDbLine
 10
35.37115087759376
 20
19.65437520306034
 30
0.0
 11
35.37401527772609
 21
19.68007559626527
 31
0.0
  0
LINE
  5
1259
330
1F
100
AcDbEntity
  8
Cut
100
AcDbLine
 10
35.37401527772609
 20
19.68007559626527
 30
0.0
 11
35.38704425656881
 21
19.70358181277729
 31
0.0
  0
LINE
  5
125A
330
1F
100
AcDbEntity
  8
Cut
100
AcDbLine
 10
35.38704425656881
 20
19.70358181277729
 30
0.0
 11
35.444438893426
 21
19.73765835865066
 31
0.0
  0
LINE
  5
125B
330
1F
100
AcDbEntity
  8
Cut
100
AcDbLine
 10
35.444438893426
 20
19.73765835865066
 30
0.0
 11
35.52490859079947
 21
19.73678499743384
 31
0.0
  0
LINE
  5
125C
330
1F
100
AcDbEntity
  8
Cut
100
AcDbLine
 10
35.52490859079947
 20
19.73678499743384
 30
0.0
 11
35.62811748898159
 21
19.69910272976662
 31
0.0
  0
LINE
  5
125D
330
1F
100
AcDbEntity
  8
Cut
100
AcDbLine
 10
35.62811748898159
 20
19.69910272976662
 30
0.0
 11
35.75286673389826
 21
19.62361221751598
 31
0.0
  0
LINE
  5
125E
330
1F
100
AcDbEntity
  8
Cut
100
AcDbLine
 10
35.75286673389826
 20
19.62361221751598
 30
0.0
 11
35.82980409103158
 21
19.5744103056882
 31
0.0
  0
LINE
  5
125F
330
1F
100
AcDbEntity
  8
Cut
100
AcDbLine
 10
35.82980409103158
 20
19.5744103056882
 30
0.0
 11
35.91985223326758
 21
19.52397956777836
 31
0.0
  0
LINE
  5
1260
330
1F
100
AcDbEntity
  8
Cut
100
AcDbLine
 10
35.91985223326758
 20
19.52397956777836
 30
0.0
 11
36.00874479974926
 21
19.47967325014046
 31
0.0
  0
LINE
  5
1261
330
1F
100
AcDbEntity
  8
Cut
100
AcDbLine
 10
36.00874479974926
 20
19.47967325014046
 30
0.0
 11
36.08128068090133
 21
19.44988359374497
 31
0.0
  0
LINE
  5
1262
330
1F
100
AcDbEntity
  8
Cut
100
AcDbLine
 10
36.08128068090133
 20
19.44988359374497
 30
0.0
 11
36.24993269740097
 21
19.40636250597293
 31
0.0
  0
LINE
  5
1263
330
1F
100
AcDbEntity
  8
Cut
100
AcDbLine
 10
36.24993269740097
 20
19.40636250597293
 30
0.0
 11
36.45976722393954
 21
19.38239287812559
 31
0.0
  0
LINE
  5
1264
330
1F
100
AcDbEntity
  8
Cut
100
AcDbLine
 10
36.45976722393954
 20
19.38239287812559
 30
0.0
 11
36.67867442426724
 21
19.37926970041121
 31
0.0
  0
LINE
  5
1265
330
1F
100
AcDbEntity
  8
Cut
100
AcDbLine
 10
36.67867442426724
 20
19.37926970041121
 30
0.0
 11
36.87613594426387
 21
19.39929409867552
 31
0.0
  0
LINE
  5
1266
330
1F
100
AcDbEntity
  8
Cut
100
AcDbLine
 10
36.87613594426387
 20
19.39929409867552
 30
0.0
 11
37.01689310216858
 21
19.42703935968244
 31
0.0
  0
LINE
  5
1267
330
1F
100
AcDbEntity
  8
Cut
100
AcDbLine
 10
37.01689310216858
 20
19.42703935968244
 30
0.0
 11
37.06383446321573
 21
19.45551373833713
 31
0.0
  0
LINE
  5
1268
330
1F
100
AcDbEntity
  8
Cut
100
AcDbLine
 10
37.06383446321573
 20
19.45551373833713
 30
0.0
 11
37.05413392572525
 21
19.47448964122589
 31
0.0
  0
LINE
  5
1269
330
1F
100
AcDbEntity
  8
Cut
100
AcDbLine
 10
37.05413392572525
 20
19.47448964122589
 30
0.0
 11
36.92768808668951
 21
19.46019818996641
 31
0.0
  0
LINE
  5
126A
330
1F
100
AcDbEntity
  8
Cut
100
AcDbLine
 10
36.92768808668951
 20
19.46019818996641
 30
0.0
 11
36.85708734219638
 21
19.45234305682726
 31
0.0
  0
LINE
  5
126B
330
1F
100
AcDbEntity
  8
Cut
100
AcDbLine
 10
36.85708734219638
 20
19.45234305682726
 30
0.0
 11
36.75328060481127
 21
19.44602565566679
 31
0.0
  0
LINE
  5
126C
330
1F
100
AcDbEntity
  8
Cut
100
AcDbLine
 10
36.75328060481127
 20
19.44602565566679
 30
0.0
 11
36.63803490098236
 21
19.44189295668532
 31
0.0
  0
LINE
  5
126D
330
1F
100
AcDbEntity
  8
Cut
100
AcDbLine
 10
36.63803490098236
 20
19.44189295668532
 30
0.0
 11
36.52744892581293
 21
19.44086191436171
 31
0.0
  0
LINE
  5
126E
330
1F
100
AcDbEntity
  8
Cut
100
AcDbLine
 10
36.52744892581293
 20
19.44086191436171
 30
0.0
 11
36.31203795234273
 21
19.4521007087347
 31
0.0
  0
LINE
  5
126F
330
1F
100
AcDbEntity
  8
Cut
100
AcDbLine
 10
36.31203795234273
 20
19.4521007087347
 30
0.0
 11
36.14704727119642
 21
19.48512293280015
 31
0.0
  0
LINE
  5
1270
330
1F
100
AcDbEntity
  8
Cut
100
AcDbLine
 10
36.14704727119642
 20
19.48512293280015
 30
0.0
 11
35.98804385295452
 21
19.55052894041778
 31
0.0
  0
LINE
  5
1271
330
1F
100
AcDbEntity
  8
Cut
100
AcDbLine
 10
35.98804385295452
 20
19.55052894041778
 30
0.0
 11
35.79055215098838
 21
19.66525291609724
 31
0.0
  0
LINE
  5
1272
330
1F
100
AcDbEntity
  8
Cut
100
AcDbLine
 10
35.79055215098838
 20
19.66525291609724
 30
0.0
 11
35.66411754489434
 21
19.74312633420838
 31
0.0
  0
LINE
  5
1273
330
1F
100
AcDbEntity
  8
Cut
100
AcDbLine
 10
35.66411754489434
 20
19.74312633420838
 30
0.0
 11
35.59532871588898
 21
19.77548444996388
 31
0.0
  0
LINE
  5
1274
330
1F
100
AcDbEntity
  8
Cut
100
AcDbLine
 10
35.59532871588898
 20
19.77548444996388
 30
0.0
 11
35.53588934245575
 21
19.78688759172214
 31
0.0
  0
LINE
  5
1275
330
1F
100
AcDbEntity
  8
Cut
100
AcDbLine
 10
35.53588934245575
 20
19.78688759172214
 30
0.0
 11
35.45795739756895
 21
19.78398815425999
 31
0.0
  0
LINE
  5
1276
330
1F
100
AcDbEntity
  8
Cut
100
AcDbLine
 10
35.45795739756895
 20
19.78398815425999
 30
0.0
 11
35.37870888892699
 21
19.77663228338689
 31
0.0
  0
LINE
  5
1277
330
1F
100
AcDbEntity
  8
Cut
100
AcDbLine
 10
35.37870888892699
 20
19.77663228338689
 30
0.0
 11
35.35041221645974
 21
19.7815065402366
 31
0.0
  0
LINE
  5
1278
330
1F
100
AcDbEntity
  8
Cut
100
AcDbLine
 10
35.35041221645974
 20
19.7815065402366
 30
0.0
 11
35.33705286315426
 21
19.79837608284113
 31
0.0
  0
LINE
  5
1279
330
1F
100
AcDbEntity
  8
Cut
100
AcDbLine
 10
35.33705286315426
 20
19.79837608284113
 30
0.0
 11
35.33329274090248
 21
19.83901946416906
 31
0.0
  0
LINE
  5
127A
330
1F
100
AcDbEntity
  8
Cut
100
AcDbLine
 10
35.33329274090248
 20
19.83901946416906
 30
0.0
 11
35.34541817655887
 21
19.9029803853318
 31
0.0
  0
LINE
  5
127B
330
1F
100
AcDbEntity
  8
Cut
100
AcDbLine
 10
35.34541817655887
 20
19.9029803853318
 30
0.0
 11
35.38000907568305
 21
19.95630229346867
 31
0.0
  0
LINE
  5
127C
330
1F
100
AcDbEntity
  8
Cut
100
AcDbLine
 10
35.38000907568305
 20
19.95630229346867
 30
0.0
 11
35.43237518645855
 21
19.99150672641998
 31
0.0
  0
LINE
  5
127D
330
1F
100
AcDbEntity
  8
Cut
100
AcDbLine
 10
35.43237518645855
 20
19.99150672641998
 30
0.0
 11
35.49516378743519
 21
20.00388193755795
 31
0.0
  0
LINE
  5
127E
330
1F
100
AcDbEntity
  8
Cut
100
AcDbLine
 10
35.49516378743519
 20
20.00388193755795
 30
0.0
 11
35.53595729125493
 21
20.00063023714384
 31
0.0
  0
LINE
  5
127F
330
1F
100
AcDbEntity
  8
Cut
100
AcDbLine
 10
35.53595729125493
 20
20.00063023714384
 30
0.0
 11
35.60377412961616
 21
19.98846288791762
 31
0.0
  0
LINE
  5
1280
330
1F
100
AcDbEntity
  8
Cut
100
AcDbLine
 10
35.60377412961616
 20
19.98846288791762
 30
0.0
 11
35.68156246081847
 21
19.97148516263629
 31
0.0
  0
LINE
  5
1281
330
1F
100
AcDbEntity
  8
Cut
100
AcDbLine
 10
35.68156246081847
 20
19.97148516263629
 30
0.0
 11
35.75958180219089
 21
19.95139155580364
 31
0.0
  0
LINE
  5
1282
330
1F
100
AcDbEntity
  8
Cut
100
AcDbLine
 10
35.75958180219089
 20
19.95139155580364
 30
0.0
 11
35.91274923480859
 21
19.91436334453827
 31
0.0
  0
LINE
  5
1283
330
1F
100
AcDbEntity
  8
Cut
100
AcDbLine
 10
35.91274923480859
 20
19.91436334453827
 30
0.0
 11
36.02342310512227
 21
19.90171730927565
 31
0.0
  0
LINE
  5
1284
330
1F
100
AcDbEntity
  8
Cut
100
AcDbLine
 10
36.02342310512227
 20
19.90171730927565
 30
0.0
 11
36.12097427501661
 21
19.91024707504629
 31
0.0
  0
LINE
  5
1285
330
1F
100
AcDbEntity
  8
Cut
100
AcDbLine
 10
36.12097427501661
 20
19.91024707504629
 30
0.0
 11
36.22889079933154
 21
19.94037282735616
 31
0.0
  0
LINE
  5
1286
330
1F
100
AcDbEntity
  8
Cut
100
AcDbLine
 10
36.22889079933154
 20
19.94037282735616
 30
0.0
 11
36.45880323807862
 21
20.00990785962853
 31
0.0
  0
LINE
  5
1287
330
1F
100
AcDbEntity
  8
Cut
100
AcDbLine
 10
36.45880323807862
 20
20.00990785962853
 30
0.0
 11
36.65631992546648
 21
20.03970625567259
 31
0.0
  0
LINE
  5
1288
330
1F
100
AcDbEntity
  8
Cut
100
AcDbLine
 10
36.65631992546648
 20
20.03970625567259
 30
0.0
 11
36.81694970569665
 21
20.03073129272909
 31
0.0
  0
LINE
  5
1289
330
1F
100
AcDbEntity
  8
Cut
100
AcDbLine
 10
36.81694970569665
 20
20.03073129272909
 30
0.0
 11
36.93424938440879
 21
19.98177432726777
 31
0.0
  0
LINE
  5
128A
330
1F
100
AcDbEntity
  8
Cut
100
AcDbLine
 10
37.93294744972303
 20
19.82197951154016
 30
0.0
 11
37.87033214574176
 21
19.74079418654704
 31
0.0
  0
LINE
  5
128B
330
1F
100
AcDbEntity
  8
Cut
100
AcDbLine
 10
37.87033214574176
 20
19.74079418654704
 30
0.0
 11
37.81577477148954
 21
19.67241310282715
 31
0.0
  0
LINE
  5
128C
330
1F
100
AcDbEntity
  8
Cut
100
AcDbLine
 10
37.81577477148954
 20
19.67241310282715
 30
0.0
 11
37.76760085754322
 21
19.61358293276457
 31
0.0
  0
LINE
  5
128D
330
1F
100
AcDbEntity
  8
Cut
100
AcDbLine
 10
37.76760085754322
 20
19.61358293276457
 30
0.0
 11
37.7604430066353
 21
19.61020407440066
 31
0.0
  0
LINE
  5
128E
330
1F
100
AcDbEntity
  8
Cut
100
AcDbLine
 10
37.7604430066353
 20
19.61020407440066
 30
0.0
 11
37.75141337495921
 21
19.62357316467195
 31
0.0
  0
LINE
  5
128F
330
1F
100
AcDbEntity
  8
Cut
100
AcDbLine
 10
37.75141337495921
 20
19.62357316467195
 30
0.0
 11
37.78320464708214
 21
19.69561852320653
 31
0.0
  0
LINE
  5
1290
330
1F
100
AcDbEntity
  8
Cut
100
AcDbLine
 10
37.78320464708214
 20
19.69561852320653
 30
0.0
 11
37.82645260115272
 21
19.77600153271454
 31
0.0
  0
LINE
  5
1291
330
1F
100
AcDbEntity
  8
Cut
100
AcDbLine
 10
37.82645260115272
 20
19.77600153271454
 30
0.0
 11
37.87402392551649
 21
19.84629439487349
 31
0.0
  0
LINE
  5
1292
330
1F
100
AcDbEntity
  8
Cut
100
AcDbLine
 10
37.87402392551649
 20
19.84629439487349
 30
0.0
 11
37.93431918086942
 21
19.91858950264446
 31
0.0
  0
LINE
  5
1293
330
1F
100
AcDbEntity
  8
Cut
100
AcDbLine
 10
37.93431918086942
 20
19.91858950264446
 30
0.0
 11
38.00219173777086
 21
19.98719416914543
 31
0.0
  0
LINE
  5
1294
330
1F
100
AcDbEntity
  8
Cut
100
AcDbLine
 10
38.00219173777086
 20
19.98719416914543
 30
0.0
 11
38.06583876645071
 21
20.04361970232947
 31
0.0
  0
LINE
  5
1295
330
1F
100
AcDbEntity
  8
Cut
100
AcDbLine
 10
38.06583876645071
 20
20.04361970232947
 30
0.0
 11
38.08503678238987
 21
20.04283090311766
 31
0.0
  0
LINE
  5
1296
330
1F
100
AcDbEntity
  8
Cut
100
AcDbLine
 10
38.08503678238987
 20
20.04283090311766
 30
0.0
 11
38.08577162148924
 21
20.03526591056366
 31
0.0
  0
LINE
  5
1297
330
1F
100
AcDbEntity
  8
Cut
100
AcDbLine
 10
38.08577162148924
 20
20.03526591056366
 30
0.0
 11
38.04412318057667
 21
19.97421198547805
 31
0.0
  0
LINE
  5
1298
330
1F
100
AcDbEntity
  8
Cut
100
AcDbLine
 10
38.04412318057667
 20
19.97421198547805
 30
0.0
 11
37.99410262875504
 21
19.90383117568447
 31
0.0
  0
LINE
  5
1299
330
1F
100
AcDbEntity
  8
Cut
100
AcDbLine
 10
37.99410262875504
 20
19.90383117568447
 30
0.0
 11
37.93294744972303
 21
19.82197951154016
 31
0.0
  0
LINE
  5
129A
330
1F
100
AcDbEntity
  8
Cut
100
AcDbLine
 10
39.32474540660105
 20
19.95547171191298
 30
0.0
 11
39.26716230302819
 21
19.89098654306247
 31
0.0
  0
LINE
  5
129B
330
1F
100
AcDbEntity
  8
Cut
100
AcDbLine
 10
39.26716230302819
 20
19.89098654306247
 30
0.0
 11
38.92748667584568
 21
19.65918599903851
 31
0.0
  0
LINE
  5
129C
330
1F
100
AcDbEntity
  8
Cut
100
AcDbLine
 10
38.92748667584568
 20
19.65918599903851
 30
0.0
 11
38.59731692557292
 21
19.44277755084384
 31
0.0
  0
LINE
  5
129D
330
1F
100
AcDbEntity
  8
Cut
100
AcDbLine
 10
38.59731692557292
 20
19.44277755084384
 30
0.0
 11
38.3777348826522
 21
19.31686863592306
 31
0.0
  0
LINE
  5
129E
330
1F
100
AcDbEntity
  8
Cut
100
AcDbLine
 10
38.3777348826522
 20
19.31686863592306
 30
0.0
 11
38.29845188782942
 21
19.27698694252477
 31
0.0
  0
LINE
  5
129F
330
1F
100
AcDbEntity
  8
Cut
100
AcDbLine
 10
38.29845188782942
 20
19.27698694252477
 30
0.0
 11
38.2002033044779
 21
19.22909149005367
 31
0.0
  0
LINE
  5
12A0
330
1F
100
AcDbEntity
  8
Cut
100
AcDbLine
 10
38.2002033044779
 20
19.22909149005367
 30
0.0
 11
38.09968939372101
 21
19.1811732042665
 31
0.0
  0
LINE
  5
12A1
330
1F
100
AcDbEntity
  8
Cut
100
AcDbLine
 10
38.09968939372101
 20
19.1811732042665
 30
0.0
 11
38.01292919650772
 21
19.14099942813893
 31
0.0
  0
LINE
  5
12A2
330
1F
100
AcDbEntity
  8
Cut
100
AcDbLine
 10
38.01292919650772
 20
19.14099942813893
 30
0.0
 11
37.90780962218456
 21
19.08712020337379
 31
0.0
  0
LINE
  5
12A3
330
1F
100
AcDbEntity
  8
Cut
100
AcDbLine
 10
37.90780962218456
 20
19.08712020337379
 30
0.0
 11
37.81253855573805
 21
19.02559614818399
 31
0.0
  0
LINE
  5
12A4
330
1F
100
AcDbEntity
  8
Cut
100
AcDbLine
 10
37.81253855573805
 20
19.02559614818399
 30
0.0
 11
37.71356072351281
 21
18.9468620977736
 31
0.0
  0
LINE
  5
12A5
330
1F
100
AcDbEntity
  8
Cut
100
AcDbLine
 10
37.71356072351281
 20
18.9468620977736
 30
0.0
 11
37.5959873599502
 21
18.8393462325426
 31
0.0
  0
LINE
  5
12A6
330
1F
100
AcDbEntity
  8
Cut
100
AcDbLine
 10
37.5959873599502
 20
18.8393462325426
 30
0.0
 11
37.42711131450123
 21
18.67965012497788
 31
0.0
  0
LINE
  5
12A7
330
1F
100
AcDbEntity
  8
Cut
100
AcDbLine
 10
37.42711131450123
 20
18.67965012497788
 30
0.0
 11
37.40000055722895
 21
18.67956425071333
 31
0.0
  0
LINE
  5
12A8
330
1F
100
AcDbEntity
  8
Cut
100
AcDbLine
 10
37.40000055722895
 20
18.67956425071333
 30
0.0
 11
37.39370213134149
 21
18.70922470203413
 31
0.0
  0
LINE
  5
12A9
330
1F
100
AcDbEntity
  8
Cut
100
AcDbLine
 10
37.39370213134149
 20
18.70922470203413
 30
0.0
 11
37.49252212498879
 21
18.93472185982956
 31
0.0
  0
LINE
  5
12AA
330
1F
100
AcDbEntity
  8
Cut
100
AcDbLine
 10
37.49252212498879
 20
18.93472185982956
 30
0.0
 11
37.54595817346078
 21
19.04820365062481
 31
0.0
  0
LINE
  5
12AB
330
1F
100
AcDbEntity
  8
Cut
100
AcDbLine
 10
37.54595817346078
 20
19.04820365062481
 30
0.0
 11
37.58013542213155
 21
19.09480232821468
 31
0.0
  0
LINE
  5
12AC
330
1F
100
AcDbEntity
  8
Cut
100
AcDbLine
 10
37.58013542213155
 20
19.09480232821468
 30
0.0
 11
37.62538470323246
 21
19.12299475478377
 31
0.0
  0
LINE
  5
12AD
330
1F
100
AcDbEntity
  8
Cut
100
AcDbLine
 10
37.62538470323246
 20
19.12299475478377
 30
0.0
 11
37.71870590946794
 21
19.15266604536841
 31
0.0
  0
LINE
  5
12AE
330
1F
100
AcDbEntity
  8
Cut
100
AcDbLine
 10
37.71870590946794
 20
19.15266604536841
 30
0.0
 11
37.9148002912266
 21
19.21498367639475
 31
0.0
  0
LINE
  5
12AF
330
1F
100
AcDbEntity
  8
Cut
100
AcDbLine
 10
37.9148002912266
 20
19.21498367639475
 30
0.0
 11
38.08302128295646
 21
19.28678957380777
 31
0.0
  0
LINE
  5
12B0
330
1F
100
AcDbEntity
  8
Cut
100
AcDbLine
 10
38.08302128295646
 20
19.28678957380777
 30
0.0
 11
38.29662666602987
 21
19.40150714566066
 31
0.0
  0
LINE
  5
12B1
330
1F
100
AcDbEntity
  8
Cut
100
AcDbLine
 10
38.29662666602987
 20
19.40150714566066
 30
0.0
 11
38.69586955946075
 21
19.63634071516834
 31
0.0
  0
LINE
  5
12B2
330
1F
100
AcDbEntity
  8
Cut
100
AcDbLine
 10
38.69586955946075
 20
19.63634071516834
 30
0.0
 11
38.93257275763095
 21
19.77655163191532
 31
0.0
  0
LINE
  5
12B3
330
1F
100
AcDbEntity
  8
Cut
100
AcDbLine
 10
38.93257275763095
 20
19.77655163191532
 30
0.0
 11
39.13525649321794
 21
19.89480618940716
 31
0.0
  0
LINE
  5
12B4
330
1F
100
AcDbEntity
  8
Cut
100
AcDbLine
 10
39.13525649321794
 20
19.89480618940716
 30
0.0
 11
39.31481963288246
 21
19.99842170433153
 31
0.0
  0
LINE
  5
12B5
330
1F
100
AcDbEntity
  8
Cut
100
AcDbLine
 10
39.31481963288246
 20
19.99842170433153
 30
0.0
 11
39.3300464627448
 21
20.00288929194859
 31
0.0
  0
LINE
  5
12B6
330
1F
100
AcDbEntity
  8
Cut
100
AcDbLine
 10
39.3300464627448
 20
20.00288929194859
 30
0.0
 11
39.33569324678798
 21
19.9992304761336
 31
0.0
  0
LINE
  5
12B7
330
1F
100
AcDbEntity
  8
Cut
100
AcDbLine
 10
39.33569324678798
 20
19.9992304761336
 30
0.0
 11
39.3369897854625
 21
19.98936984297876
 31
0.0
  0
LINE
  5
12B8
330
1F
100
AcDbEntity
  8
Cut
100
AcDbLine
 10
39.3369897854625
 20
19.98936984297876
 30
0.0
 11
39.33322924328767
 21
19.97398323239436
 31
0.0
  0
LINE
  5
12B9
330
1F
100
AcDbEntity
  8
Cut
100
AcDbLine
 10
39.33322924328767
 20
19.97398323239436
 30
0.0
 11
39.32474540660105
 21
19.95547171191298
 31
0.0
  0
LINE
  5
12BA
330
1F
100
AcDbEntity
  8
Cut
100
AcDbLine
 10
39.13654395105642
 20
19.49866201317276
 30
0.0
 11
38.9735860649243
 21
19.09413816741434
 31
0.0
  0
LINE
  5
12BB
330
1F
100
AcDbEntity
  8
Cut
100
AcDbLine
 10
38.9735860649243
 20
19.09413816741434
 30
0.0
 11
38.80973977908099
 21
18.81560590892795
 31
0.0
  0
LINE
  5
12BC
330
1F
100
AcDbEntity
  8
Cut
100
AcDbLine
 10
38.80973977908099
 20
18.81560590892795
 30
0.0
 11
38.62680581208096
 21
18.62973741464558
 31
0.0
  0
LINE
  5
12BD
330
1F
100
AcDbEntity
  8
Cut
100
AcDbLine
 10
38.62680581208096
 20
18.62973741464558
 30
0.0
 11
38.40807408709946
 21
18.51336051684467
 31
0.0
  0
LINE
  5
12BE
330
1F
100
AcDbEntity
  8
Cut
100
AcDbLine
 10
38.40807408709946
 20
18.51336051684467
 30
0.0
 11
38.30862347400577
 21
18.48075469897767
 31
0.0
  0
LINE
  5
12BF
330
1F
100
AcDbEntity
  8
Cut
100
AcDbLine
 10
38.30862347400577
 20
18.48075469897767
 30
0.0
 11
38.27132296888506
 21
18.47352323030934
 31
0.0
  0
LINE
  5
12C0
330
1F
100
AcDbEntity
  8
Cut
100
AcDbLine
 10
38.27132296888506
 20
18.47352323030934
 30
0.0
 11
38.25876889677126
 21
18.48196287009451
 31
0.0
  0
LINE
  5
12C1
330
1F
100
AcDbEntity
  8
Cut
100
AcDbLine
 10
38.25876889677126
 20
18.48196287009451
 30
0.0
 11
38.25942841217281
 21
18.50223252966757
 31
0.0
  0
LINE
  5
12C2
330
1F
100
AcDbEntity
  8
Cut
100
AcDbLine
 10
38.25942841217281
 20
18.50223252966757
 30
0.0
 11
38.27154935990156
 21
18.53396398900049
 31
0.0
  0
LINE
  5
12C3
330
1F
100
AcDbEntity
  8
Cut
100
AcDbLine
 10
38.27154935990156
 20
18.53396398900049
 30
0.0
 11
38.31447481306665
 21
18.65087741723849
 31
0.0
  0
LINE
  5
12C4
330
1F
100
AcDbEntity
  8
Cut
100
AcDbLine
 10
38.31447481306665
 20
18.65087741723849
 30
0.0
 11
38.36510433205218
 21
18.7893578310798
 31
0.0
  0
LINE
  5
12C5
330
1F
100
AcDbEntity
  8
Cut
100
AcDbLine
 10
38.36510433205218
 20
18.7893578310798
 30
0.0
 11
38.42174872388296
 21
18.94500816373523
 31
0.0
  0
LINE
  5
12C6
330
1F
100
AcDbEntity
  8
Cut
100
AcDbLine
 10
38.42174872388296
 20
18.94500816373523
 30
0.0
 11
38.56621498338838
 21
19.3427424835945
 31
0.0
  0
LINE
  5
12C7
330
1F
100
AcDbEntity
  8
Cut
100
AcDbLine
 10
38.56621498338838
 20
19.3427424835945
 30
0.0
 11
38.89845928477402
 21
19.56659262443643
 31
0.0
  0
LINE
  5
12C8
330
1F
100
AcDbEntity
  8
Cut
100
AcDbLine
 10
38.89845928477402
 20
19.56659262443643
 30
0.0
 11
39.02620223987848
 21
19.65254289505925
 31
0.0
  0
LINE
  5
12C9
330
1F
100
AcDbEntity
  8
Cut
100
AcDbLine
 10
39.02620223987848
 20
19.65254289505925
 30
0.0
 11
39.13457222860139
 21
19.72519756194524
 31
0.0
  0
LINE
  5
12CA
330
1F
100
AcDbEntity
  8
Cut
100
AcDbLine
 10
39.13457222860139
 20
19.72519756194524
 30
0.0
 11
39.23189480288319
 21
19.79028881098867
 31
0.0
  0
LINE
  5
12CB
330
1F
100
AcDbEntity
  8
Cut
100
AcDbLine
 10
39.23189480288319
 20
19.79028881098867
 30
0.0
 11
39.23569219330601
 21
19.79218158790954
 31
0.0
  0
LINE
  5
12CC
330
1F
100
AcDbEntity
  8
Cut
100
AcDbLine
 10
39.23569219330601
 20
19.79218158790954
 30
0.0
 11
39.23702109230089
 21
19.79086662511103
 31
0.0
  0
LINE
  5
12CD
330
1F
100
AcDbEntity
  8
Cut
100
AcDbLine
 10
39.23702109230089
 20
19.79086662511103
 30
0.0
 11
39.20862521301212
 21
19.70667748553163
 31
0.0
  0
LINE
  5
12CE
330
1F
100
AcDbEntity
  8
Cut
100
AcDbLine
 10
39.20862521301212
 20
19.70667748553163
 30
0.0
 11
39.17612146269245
 21
19.61176603069052
 31
0.0
  0
LINE
  5
12CF
330
1F
100
AcDbEntity
  8
Cut
100
AcDbLine
 10
39.17612146269245
 20
19.61176603069052
 30
0.0
 11
39.13654395105642
 21
19.49866201317276
 31
0.0
  0
LINE
  5
12D0
330
1F
100
AcDbEntity
  8
Cut
100
AcDbLine
 10
35.43959321758916
 20
19.41196036898031
 30
0.0
 11
35.47176493999904
 21
19.38134435650486
 31
0.0
  0
LINE
  5
12D1
330
1F
100
AcDbEntity
  8
Cut
100
AcDbLine
 10
35.47176493999904
 20
19.38134435650486
 30
0.0
 11
35.5199269386287
 21
19.34211834671025
 31
0.0
  0
LINE
  5
12D2
330
1F
100
AcDbEntity
  8
Cut
100
AcDbLine
 10
35.5199269386287
 20
19.34211834671025
 30
0.0
 11
35.57423705693766
 21
19.30155724405572
 31
0.0
  0
LINE
  5
12D3
330
1F
100
AcDbEntity
  8
Cut
100
AcDbLine
 10
35.57423705693766
 20
19.30155724405572
 30
0.0
 11
35.62703726317027
 21
19.26577767399152
 31
0.0
  0
LINE
  5
12D4
330
1F
100
AcDbEntity
  8
Cut
100
AcDbLine
 10
35.62703726317027
 20
19.26577767399152
 30
0.0
 11
35.67540780608664
 21
19.23445889403995
 31
0.0
  0
LINE
  5
12D5
330
1F
100
AcDbEntity
  8
Cut
100
AcDbLine
 10
35.67540780608664
 20
19.23445889403995
 30
0.0
 11
35.71612470019421
 21
19.20746994069853
 31
0.0
  0
LINE
  5
12D6
330
1F
100
AcDbEntity
  8
Cut
100
AcDbLine
 10
35.71612470019421
 20
19.20746994069853
 30
0.0
 11
35.75190185570085
 21
19.18335562311389
 31
0.0
  0
LINE
  5
12D7
330
1F
100
AcDbEntity
  8
Cut
100
AcDbLine
 10
35.75190185570085
 20
19.18335562311389
 30
0.0
 11
35.75312671875908
 21
19.18098376647875
 31
0.0
  0
LINE
  5
12D8
330
1F
100
AcDbEntity
  8
Cut
100
AcDbLine
 10
35.75312671875908
 20
19.18098376647875
 30
0.0
 11
35.75252040235944
 21
19.17797562143598
 31
0.0
  0
LINE
  5
12D9
330
1F
100
AcDbEntity
  8
Cut
100
AcDbLine
 10
35.75252040235944
 20
19.17797562143598
 30
0.0
 11
35.7071782657732
 21
19.06263924047259
 31
0.0
  0
LINE
  5
12DA
330
1F
100
AcDbEntity
  8
Cut
100
AcDbLine
 10
35.7071782657732
 20
19.06263924047259
 30
0.0
 11
35.6567304422441
 21
18.93469957766251
 31
0.0
  0
LINE
  5
12DB
330
1F
100
AcDbEntity
  8
Cut
100
AcDbLine
 10
35.6567304422441
 20
18.93469957766251
 30
0.0
 11
35.5968315417638
 21
18.78348056177035
 31
0.0
  0
LINE
  5
12DC
330
1F
100
AcDbEntity
  8
Cut
100
AcDbLine
 10
35.5968315417638
 20
18.78348056177035
 30
0.0
 11
35.44062544094636
 21
18.38980269861305
 31
0.0
  0
LINE
  5
12DD
330
1F
100
AcDbEntity
  8
Cut
100
AcDbLine
 10
35.44062544094636
 20
18.38980269861305
 30
0.0
 11
35.28582639730222
 21
18.38208892207197
 31
0.0
  0
LINE
  5
12DE
330
1F
100
AcDbEntity
  8
Cut
100
AcDbLine
 10
35.28582639730222
 20
18.38208892207197
 30
0.0
 11
35.11380203124601
 21
18.3873327636996
 31
0.0
  0
LINE
  5
12DF
330
1F
100
AcDbEntity
  8
Cut
100
AcDbLine
 10
35.11380203124601
 20
18.3873327636996
 30
0.0
 11
34.92235753620025
 21
18.41957324850959
 31
0.0
  0
LINE
  5
12E0
330
1F
100
AcDbEntity
  8
Cut
100
AcDbLine
 10
34.92235753620025
 20
18.41957324850959
 30
0.0
 11
34.73102022651403
 21
18.47418964819609
 31
0.0
  0
LINE
  5
12E1
330
1F
100
AcDbEntity
  8
Cut
100
AcDbLine
 10
34.73102022651403
 20
18.47418964819609
 30
0.0
 11
34.55905961002647
 21
18.54685701775446
 31
0.0
  0
LINE
  5
12E2
330
1F
100
AcDbEntity
  8
Cut
100
AcDbLine
 10
34.55905961002647
 20
18.54685701775446
 30
0.0
 11
34.36240045800533
 21
18.62453892470777
 31
0.0
  0
LINE
  5
12E3
330
1F
100
AcDbEntity
  8
Cut
100
AcDbLine
 10
34.36240045800533
 20
18.62453892470777
 30
0.0
 11
34.20806590174934
 21
18.63465321763244
 31
0.0
  0
LINE
  5
12E4
330
1F
100
AcDbEntity
  8
Cut
100
AcDbLine
 10
34.20806590174934
 20
18.63465321763244
 30
0.0
 11
34.11174985678286
 21
18.57905627136958
 31
0.0
  0
LINE
  5
12E5
330
1F
100
AcDbEntity
  8
Cut
100
AcDbLine
 10
34.11174985678286
 20
18.57905627136958
 30
0.0
 11
34.0738683618717
 21
18.47103187932013
 31
0.0
  0
LINE
  5
12E6
330
1F
100
AcDbEntity
  8
Cut
100
AcDbLine
 10
34.0738683618717
 20
18.47103187932013
 30
0.0
 11
34.07699164456685
 21
18.42496828868187
 31
0.0
  0
LINE
  5
12E7
330
1F
100
AcDbEntity
  8
Cut
100
AcDbLine
 10
34.07699164456685
 20
18.42496828868187
 30
0.0
 11
34.08904653315015
 21
18.34128371289709
 31
0.0
  0
LINE
  5
12E8
330
1F
100
AcDbEntity
  8
Cut
100
AcDbLine
 10
34.08904653315015
 20
18.34128371289709
 30
0.0
 11
34.10556562372091
 21
18.24369367387506
 31
0.0
  0
LINE
  5
12E9
330
1F
100
AcDbEntity
  8
Cut
100
AcDbLine
 10
34.10556562372091
 20
18.24369367387506
 30
0.0
 11
34.12505459384613
 21
18.14340250605314
 31
0.0
  0
LINE
  5
12EA
330
1F
100
AcDbEntity
  8
Cut
100
AcDbLine
 10
34.12505459384613
 20
18.14340250605314
 30
0.0
 11
34.19977181779277
 21
17.90278053345231
 31
0.0
  0
LINE
  5
12EB
330
1F
100
AcDbEntity
  8
Cut
100
AcDbLine
 10
34.19977181779277
 20
17.90278053345231
 30
0.0
 11
34.31775599732818
 21
17.69077529342148
 31
0.0
  0
LINE
  5
12EC
330
1F
100
AcDbEntity
  8
Cut
100
AcDbLine
 10
34.31775599732818
 20
17.69077529342148
 30
0.0
 11
34.50359596308807
 21
17.47106328431554
 31
0.0
  0
LINE
  5
12ED
330
1F
100
AcDbEntity
  8
Cut
100
AcDbLine
 10
34.50359596308807
 20
17.47106328431554
 30
0.0
 11
34.79394401646888
 21
17.20047366043468
 31
0.0
  0
LINE
  5
12EE
330
1F
100
AcDbEntity
  8
Cut
100
AcDbLine
 10
34.79394401646888
 20
17.20047366043468
 30
0.0
 11
34.95009287652503
 21
17.06442055931684
 31
0.0
  0
LINE
  5
12EF
330
1F
100
AcDbEntity
  8
Cut
100
AcDbLine
 10
34.95009287652503
 20
17.06442055931684
 30
0.0
 11
34.0656399696279
 21
17.06442055931684
 31
0.0
  0
LINE
  5
12F0
330
1F
100
AcDbEntity
  8
Cut
100
AcDbLine
 10
34.0656399696279
 20
17.06442055931684
 30
0.0
 11
33.49085364996724
 21
17.06539000417746
 31
0.0
  0
LINE
  5
12F1
330
1F
100
AcDbEntity
  8
Cut
100
AcDbLine
 10
33.49085364996724
 20
17.06539000417746
 30
0.0
 11
33.29896996789734
 21
17.07136892111118
 31
0.0
  0
LINE
  5
12F2
330
1F
100
AcDbEntity
  8
Cut
100
AcDbLine
 10
33.29896996789734
 20
17.07136892111118
 30
0.0
 11
33.20620403116524
 21
17.08497206599472
 31
0.0
  0
LINE
  5
12F3
330
1F
100
AcDbEntity
  8
Cut
100
AcDbLine
 10
33.20620403116524
 20
17.08497206599472
 30
0.0
 11
33.18118708897595
 21
17.11659710107864
 31
0.0
  0
LINE
  5
12F4
330
1F
100
AcDbEntity
  8
Cut
100
AcDbLine
 10
33.18118708897595
 20
17.11659710107864
 30
0.0
 11
33.19709760606064
 21
17.22134845537379
 31
0.0
  0
LINE
  5
12F5
330
1F
100
AcDbEntity
  8
Cut
100
AcDbLine
 10
33.19709760606064
 20
17.22134845537379
 30
0.0
 11
33.27596842016069
 21
17.46202475551974
 31
0.0
  0
LINE
  5
12F6
330
1F
100
AcDbEntity
  8
Cut
100
AcDbLine
 10
33.27596842016069
 20
17.46202475551974
 30
0.0
 11
33.36894513202072
 21
17.71462534817919
 31
0.0
  0
LINE
  5
12F7
330
1F
100
AcDbEntity
  8
Cut
100
AcDbLine
 10
33.36894513202072
 20
17.71462534817919
 30
0.0
 11
33.45813957068787
 21
17.92022579056393
 31
0.0
  0
LINE
  5
12F8
330
1F
100
AcDbEntity
  8
Cut
100
AcDbLine
 10
33.45813957068787
 20
17.92022579056393
 30
0.0
 11
33.75283395890389
 21
18.42397346472167
 31
0.0
  0
LINE
  5
12F9
330
1F
100
AcDbEntity
  8
Cut
100
AcDbLine
 10
33.75283395890389
 20
18.42397346472167
 30
0.0
 11
34.14087821310383
 21
18.89752431459265
 31
0.0
  0
LINE
  5
12FA
330
1F
100
AcDbEntity
  8
Cut
100
AcDbLine
 10
34.14087821310383
 20
18.89752431459265
 30
0.0
 11
34.5916823035512
 21
19.30753004585997
 31
0.0
  0
LINE
  5
12FB
330
1F
100
AcDbEntity
  8
Cut
100
AcDbLine
 10
34.5916823035512
 20
19.30753004585997
 30
0.0
 11
35.07356311455469
 21
19.62168366839994
 31
0.0
  0
LINE
  5
12FC
330
1F
100
AcDbEntity
  8
Cut
100
AcDbLine
 10
35.07356311455469
 20
19.62168366839994
 30
0.0
 11
35.29021755892344
 21
19.73744464406134
 31
0.0
  0
LINE
  5
12FD
330
1F
100
AcDbEntity
  8
Cut
100
AcDbLine
 10
35.29021755892344
 20
19.73744464406134
 30
0.0
 11
35.33427263134907
 21
19.60730959727958
 31
0.0
  0
LINE
  5
12FE
330
1F
100
AcDbEntity
  8
Cut
100
AcDbLine
 10
35.33427263134907
 20
19.60730959727958
 30
0.0
 11
35.35563049527146
 21
19.55270487670302
 31
0.0
  0
LINE
  5
12FF
330
1F
100
AcDbEntity
  8
Cut
100
AcDbLine
 10
35.35563049527146
 20
19.55270487670302
 30
0.0
 11
35.38338326240297
 21
19.4962450410545
 31
0.0
  0
LINE
  5
1300
330
1F
100
AcDbEntity
  8
Cut
100
AcDbLine
 10
35.38338326240297
 20
19.4962450410545
 30
0.0
 11
35.41298432085683
 21
19.44605371177584
 31
0.0
  0
LINE
  5
1301
330
1F
100
AcDbEntity
  8
Cut
100
AcDbLine
 10
35.41298432085683
 20
19.44605371177584
 30
0.0
 11
35.43959321758916
 21
19.41196036898031
 31
0.0
  0
LINE
  5
1302
330
1F
100
AcDbEntity
  8
Cut
100
AcDbLine
 10
39.36192954054543
 20
19.21414236055599
 30
0.0
 11
39.7877903590543
 21
18.80131910306726
 31
0.0
  0
LINE
  5
1303
330
1F
100
AcDbEntity
  8
Cut
100
AcDbLine
 10
39.7877903590543
 20
18.80131910306726
 30
0.0
 11
40.17944970458123
 21
18.26445548326744
 31
0.0
  0
LINE
  5
1304
330
1F
100
AcDbEntity
  8
Cut
100
AcDbLine
 10
40.17944970458123
 20
18.26445548326744
 30
0.0
 11
40.48497406583193
 21
17.6879599455509
 31
0.0
  0
LINE
  5
1305
330
1F
100
AcDbEntity
  8
Cut
100
AcDbLine
 10
40.48497406583193
 20
17.6879599455509
 30
0.0
 11
40.64962264091518
 21
17.15656052200132
 31
0.0
  0
LINE
  5
1306
330
1F
100
AcDbEntity
  8
Cut
100
AcDbLine
 10
40.64962264091518
 20
17.15656052200132
 30
0.0
 11
40.66706104803198
 21
17.06360575112087
 31
0.0
  0
LINE
  5
1307
330
1F
100
AcDbEntity
  8
Cut
100
AcDbLine
 10
40.66706104803198
 20
17.06360575112087
 30
0.0
 11
39.91236759298997
 21
17.07057445293814
 31
0.0
  0
LINE
  5
1308
330
1F
100
AcDbEntity
  8
Cut
100
AcDbLine
 10
39.91236759298997
 20
17.07057445293814
 30
0.0
 11
39.15767416419314
 21
17.07754315475542
 31
0.0
  0
LINE
  5
1309
330
1F
100
AcDbEntity
  8
Cut
100
AcDbLine
 10
39.15767416419314
 20
17.07754315475542
 30
0.0
 11
39.15278471137792
 21
17.23501430001833
 31
0.0
  0
LINE
  5
130A
330
1F
100
AcDbEntity
  8
Cut
100
AcDbLine
 10
39.15278471137792
 20
17.23501430001833
 30
0.0
 11
39.13326146503341
 21
17.3960045579452
 31
0.0
  0
LINE
  5
130B
330
1F
100
AcDbEntity
  8
Cut
100
AcDbLine
 10
39.13326146503341
 20
17.3960045579452
 30
0.0
 11
39.07890444656835
 21
17.61282274605984
 31
0.0
  0
LINE
  5
130C
330
1F
100
AcDbEntity
  8
Cut
100
AcDbLine
 10
39.07890444656835
 20
17.61282274605984
 30
0.0
 11
39.00862048152911
 21
17.82740822954138
 31
0.0
  0
LINE
  5
130D
330
1F
100
AcDbEntity
  8
Cut
100
AcDbLine
 10
39.00862048152911
 20
17.82740822954138
 30
0.0
 11
38.93692011602861
 21
17.98300224001719
 31
0.0
  0
LINE
  5
130E
330
1F
100
AcDbEntity
  8
Cut
100
AcDbLine
 10
38.93692011602861
 20
17.98300224001719
 30
0.0
 11
38.90708132863579
 21
18.04101321893693
 31
0.0
  0
LINE
  5
130F
330
1F
100
AcDbEntity
  8
Cut
100
AcDbLine
 10
38.90708132863579
 20
18.04101321893693
 30
0.0
 11
38.87170454351599
 21
18.11969816459519
 31
0.0
  0
LINE
  5
1310
330
1F
100
AcDbEntity
  8
Cut
100
AcDbLine
 10
38.87170454351599
 20
18.11969816459519
 30
0.0
 11
38.83682927774866
 21
18.20440974094418
 31
0.0
  0
LINE
  5
1311
330
1F
100
AcDbEntity
  8
Cut
100
AcDbLine
 10
38.83682927774866
 20
18.20440974094418
 30
0.0
 11
38.80801379034814
 21
18.28250280505777
 31
0.0
  0
LINE
  5
1312
330
1F
100
AcDbEntity
  8
Cut
100
AcDbLine
 10
38.80801379034814
 20
18.28250280505777
 30
0.0
 11
38.74540885321726
 21
18.46390003739636
 31
0.0
  0
LINE
  5
1313
330
1F
100
AcDbEntity
  8
Cut
100
AcDbLine
 10
38.74540885321726
 20
18.46390003739636
 30
0.0
 11
38.81746247898697
 21
18.55366667371502
 31
0.0
  0
LINE
  5
1314
330
1F
100
AcDbEntity
  8
Cut
100
AcDbLine
 10
38.81746247898697
 20
18.55366667371502
 30
0.0
 11
38.90092202850517
 21
18.66684297048846
 31
0.0
  0
LINE
  5
1315
330
1F
100
AcDbEntity
  8
Cut
100
AcDbLine
 10
38.90092202850517
 20
18.66684297048846
 30
0.0
 11
38.96304806963811
 21
18.77226838002091
 31
0.0
  0
LINE
  5
1316
330
1F
100
AcDbEntity
  8
Cut
100
AcDbLine
 10
38.96304806963811
 20
18.77226838002091
 30
0.0
 11
39.01004968964352
 21
18.88152078455149
 31
0.0
  0
LINE
  5
1317
330
1F
100
AcDbEntity
  8
Cut
100
AcDbLine
 10
39.01004968964352
 20
18.88152078455149
 30
0.0
 11
39.04760010147177
 21
19.00608555202149
 31
0.0
  0
LINE
  5
1318
330
1F
100
AcDbEntity
  8
Cut
100
AcDbLine
 10
39.04760010147177
 20
19.00608555202149
 30
0.0
 11
39.09881895621845
 21
19.20639346794951
 31
0.0
  0
LINE
  5
1319
330
1F
100
AcDbEntity
  8
Cut
100
AcDbLine
 10
39.09881895621845
 20
19.20639346794951
 30
0.0
 11
39.12907661685767
 21
19.3028346237409
 31
0.0
  0
LINE
  5
131A
330
1F
100
AcDbEntity
  8
Cut
100
AcDbLine
 10
39.12907661685767
 20
19.3028346237409
 30
0.0
 11
39.15275195737971
 21
19.35013808968658
 31
0.0
  0
LINE
  5
131B
330
1F
100
AcDbEntity
  8
Cut
100
AcDbLine
 10
39.15275195737971
 20
19.35013808968658
 30
0.0
 11
39.17556561579486
 21
19.35561218037378
 31
0.0
  0
LINE
  5
131C
330
1F
100
AcDbEntity
  8
Cut
100
AcDbLine
 10
39.17556561579486
 20
19.35561218037378
 30
0.0
 11
39.19385793644204
 21
19.34358274962562
 31
0.0
  0
LINE
  5
131D
330
1F
100
AcDbEntity
  8
Cut
100
AcDbLine
 10
39.19385793644204
 20
19.34358274962562
 30
0.0
 11
39.24222829564206
 21
19.30718919956605
 31
0.0
  0
LINE
  5
131E
330
1F
100
AcDbEntity
  8
Cut
100
AcDbLine
 10
39.24222829564206
 20
19.30718919956605
 30
0.0
 11
39.29950910710642
 21
19.26316533267237
 31
0.0
  0
LINE
  5
131F
330
1F
100
AcDbEntity
  8
Cut
100
AcDbLine
 10
39.29950910710642
 20
19.26316533267237
 30
0.0
 11
39.36192954054543
 21
19.21414236055599
 31
0.0
  0
LINE
  5
1320
330
1F
100
AcDbEntity
  8
Cut
100
AcDbLine
 10
37.34065480039158
 20
18.68942472639702
 30
0.0
 11
37.29949871925987
 21
18.57848948022739
 31
0.0
  0
LINE
  5
1321
330
1F
100
AcDbEntity
  8
Cut
100
AcDbLine
 10
37.29949871925987
 20
18.57848948022739
 30
0.0
 11
37.26640243126576
 21
18.50528807352505
 31
0.0
  0
LINE
  5
1322
330
1F
100
AcDbEntity
  8
Cut
100
AcDbLine
 10
37.26640243126576
 20
18.50528807352505
 30
0.0
 11
37.23896379282385
 21
18.46015130555743
 31
0.0
  0
LINE
  5
1323
330
1F
100
AcDbEntity
  8
Cut
100
AcDbLine
 10
37.23896379282385
 20
18.46015130555743
 30
0.0
 11
37.21866959399733
 21
18.45329826629635
 31
0.0
  0
LINE
  5
1324
330
1F
100
AcDbEntity
  8
Cut
100
AcDbLine
 10
37.21866959399733
 20
18.45329826629635
 30
0.0
 11
37.14106413928504
 21
18.4708009741308
 31
0.0
  0
LINE
  5
1325
330
1F
100
AcDbEntity
  8
Cut
100
AcDbLine
 10
37.14106413928504
 20
18.4708009741308
 30
0.0
 11
37.05805264766549
 21
18.47644859802008
 31
0.0
  0
LINE
  5
1326
330
1F
100
AcDbEntity
  8
Cut
100
AcDbLine
 10
37.05805264766549
 20
18.47644859802008
 30
0.0
 11
36.98507566359034
 21
18.47083858348932
 31
0.0
  0
LINE
  5
1327
330
1F
100
AcDbEntity
  8
Cut
100
AcDbLine
 10
36.98507566359034
 20
18.47083858348932
 30
0.0
 11
36.94353335822968
 21
18.45222990331131
 31
0.0
  0
LINE
  5
1328
330
1F
100
AcDbEntity
  8
Cut
100
AcDbLine
 10
36.94353335822968
 20
18.45222990331131
 30
0.0
 11
36.9229660257017
 21
18.42533433035903
 31
0.0
  0
LINE
  5
1329
330
1F
100
AcDbEntity
  8
Cut
100
AcDbLine
 10
36.9229660257017
 20
18.42533433035903
 30
0.0
 11
36.9125146657906
 21
18.38812185160852
 31
0.0
  0
LINE
  5
132A
330
1F
100
AcDbEntity
  8
Cut
100
AcDbLine
 10
36.9125146657906
 20
18.38812185160852
 30
0.0
 11
36.91044095452382
 21
18.33073834271227
 31
0.0
  0
LINE
  5
132B
330
1F
100
AcDbEntity
  8
Cut
100
AcDbLine
 10
36.91044095452382
 20
18.33073834271227
 30
0.0
 11
36.91697498348979
 21
18.23192903085765
 31
0.0
  0
LINE
  5
132C
330
1F
100
AcDbEntity
  8
Cut
100
AcDbLine
 10
36.91697498348979
 20
18.23192903085765
 30
0.0
 11
36.92595719010597
 21
18.15252431083959
 31
0.0
  0
LINE
  5
132D
330
1F
100
AcDbEntity
  8
Cut
100
AcDbLine
 10
36.92595719010597
 20
18.15252431083959
 30
0.0
 11
36.9400258459401
 21
18.06710217219279
 31
0.0
  0
LINE
  5
132E
330
1F
100
AcDbEntity
  8
Cut
100
AcDbLine
 10
36.9400258459401
 20
18.06710217219279
 30
0.0
 11
36.95667487645088
 21
17.98825802320667
 31
0.0
  0
LINE
  5
132F
330
1F
100
AcDbEntity
  8
Cut
100
AcDbLine
 10
36.95667487645088
 20
17.98825802320667
 30
0.0
 11
36.97345481797376
 21
17.93097198894934
 31
0.0
  0
LINE
  5
1330
330
1F
100
AcDbEntity
  8
Cut
100
AcDbLine
 10
36.97345481797376
 20
17.93097198894934
 30
0.0
 11
37.01427425204209
 21
17.81527738737567
 31
0.0
  0
LINE
  5
1331
330
1F
100
AcDbEntity
  8
Cut
100
AcDbLine
 10
37.01427425204209
 20
17.81527738737567
 30
0.0
 11
36.8762854631163
 21
17.43984896022366
 31
0.0
  0
LINE
  5
1332
330
1F
100
AcDbEntity
  8
Cut
100
AcDbLine
 10
36.8762854631163
 20
17.43984896022366
 30
0.0
 11
36.73829664794531
 21
17.06442055931684
 31
0.0
  0
LINE
  5
1333
330
1F
100
AcDbEntity
  8
Cut
100
AcDbLine
 10
36.73829664794531
 20
17.06442055931684
 30
0.0
 11
36.20638843512539
 21
17.06442055931684
 31
0.0
  0
LINE
  5
1334
330
1F
100
AcDbEntity
  8
Cut
100
AcDbLine
 10
36.20638843512539
 20
17.06442055931684
 30
0.0
 11
35.86833279234977
 21
17.06547296522582
 31
0.0
  0
LINE
  5
1335
330
1F
100
AcDbEntity
  8
Cut
100
AcDbLine
 10
35.86833279234977
 20
17.06547296522582
 30
0.0
 11
35.74882109021492
 21
17.07161701690055
 31
0.0
  0
LINE
  5
1336
330
1F
100
AcDbEntity
  8
Cut
100
AcDbLine
 10
35.74882109021492
 20
17.07161701690055
 30
0.0
 11
35.6934512960791
 21
17.08644397503468
 31
0.0
  0
LINE
  5
1337
330
1F
100
AcDbEntity
  8
Cut
100
AcDbLine
 10
35.6934512960791
 20
17.08644397503468
 30
0.0
 11
35.67448022230546
 21
17.11591113052468
 31
0.0
  0
LINE
  5
1338
330
1F
100
AcDbEntity
  8
Cut
100
AcDbLine
 10
35.67448022230546
 20
17.11591113052468
 30
0.0
 11
35.68806008770469
 21
17.20548116411847
 31
0.0
  0
LINE
  5
1339
330
1F
100
AcDbEntity
  8
Cut
100
AcDbLine
 10
35.68806008770469
 20
17.20548116411847
 30
0.0
 11
35.75014550128216
 21
17.39303538701089
 31
0.0
  0
LINE
  5
133A
330
1F
100
AcDbEntity
  8
Cut
100
AcDbLine
 10
35.75014550128216
 20
17.39303538701089
 30
0.0
 11
35.83386230616134
 21
17.61543301400891
 31
0.0
  0
LINE
  5
133B
330
1F
100
AcDbEntity
  8
Cut
100
AcDbLine
 10
35.83386230616134
 20
17.61543301400891
 30
0.0
 11
35.93382598649149
 21
17.85278549195622
 31
0.0
  0
LINE
  5
133C
330
1F
100
AcDbEntity
  8
Cut
100
AcDbLine
 10
35.93382598649149
 20
17.85278549195622
 30
0.0
 11
36.03916932731207
 21
18.11267904576624
 31
0.0
  0
LINE
  5
133D
330
1F
100
AcDbEntity
  8
Cut
100
AcDbLine
 10
36.03916932731207
 20
18.11267904576624
 30
0.0
 11
36.11367853187581
 21
18.34609243550517
 31
0.0
  0
LINE
  5
133E
330
1F
100
AcDbEntity
  8
Cut
100
AcDbLine
 10
36.11367853187581
 20
18.34609243550517
 30
0.0
 11
36.15850481923537
 21
18.55535145749819
 31
0.0
  0
LINE
  5
133F
330
1F
100
AcDbEntity
  8
Cut
100
AcDbLine
 10
36.15850481923537
 20
18.55535145749819
 30
0.0
 11
36.17354074157927
 21
18.74174973720361
 31
0.0
  0
LINE
  5
1340
330
1F
100
AcDbEntity
  8
Cut
100
AcDbLine
 10
36.17354074157927
 20
18.74174973720361
 30
0.0
 11
36.17883560385797
 21
18.90076318110842
 31
0.0
  0
LINE
  5
1341
330
1F
100
AcDbEntity
  8
Cut
100
AcDbLine
 10
36.17883560385797
 20
18.90076318110842
 30
0.0
 11
36.20544098373472
 21
18.94863892344118
 31
0.0
  0
LINE
  5
1342
330
1F
100
AcDbEntity
  8
Cut
100
AcDbLine
 10
36.20544098373472
 20
18.94863892344118
 30
0.0
 11
36.25922276010614
 21
18.95811435592951
 31
0.0
  0
LINE
  5
1343
330
1F
100
AcDbEntity
  8
Cut
100
AcDbLine
 10
36.25922276010614
 20
18.95811435592951
 30
0.0
 11
36.41015719939362
 21
18.91088702728257
 31
0.0
  0
LINE
  5
1344
330
1F
100
AcDbEntity
  8
Cut
100
AcDbLine
 10
36.41015719939362
 20
18.91088702728257
 30
0.0
 11
36.65708171837688
 21
18.85693906636251
 31
0.0
  0
LINE
  5
1345
330
1F
100
AcDbEntity
  8
Cut
100
AcDbLine
 10
36.65708171837688
 20
18.85693906636251
 30
0.0
 11
36.88489212729621
 21
18.87191092419549
 31
0.0
  0
LINE
  5
1346
330
1F
100
AcDbEntity
  8
Cut
100
AcDbLine
 10
36.88489212729621
 20
18.87191092419549
 30
0.0
 11
37.06363507850064
 21
18.95203523485702
 31
0.0
  0
LINE
  5
1347
330
1F
100
AcDbEntity
  8
Cut
100
AcDbLine
 10
37.06363507850064
 20
18.95203523485702
 30
0.0
 11
37.17092156076338
 21
19.0864239709502
 31
0.0
  0
LINE
  5
1348
330
1F
100
AcDbEntity
  8
Cut
100
AcDbLine
 10
37.17092156076338
 20
19.0864239709502
 30
0.0
 11
37.20598014918899
 21
19.17106290061085
 31
0.0
  0
LINE
  5
1349
330
1F
100
AcDbEntity
  8
Cut
100
AcDbLine
 10
37.20598014918899
 20
19.17106290061085
 30
0.0
 11
37.31676461673703
 21
19.05380962339617
 31
0.0
  0
LINE
  5
134A
330
1F
100
AcDbEntity
  8
Cut
100
AcDbLine
 10
37.31676461673703
 20
19.05380962339617
 30
0.0
 11
37.42754911053026
 21
18.93655637242668
 31
0.0
  0
LINE
  5
134B
330
1F
100
AcDbEntity
  8
Cut
100
AcDbLine
 10
37.42754911053026
 20
18.93655637242668
 30
0.0
 11
37.34065480039158
 21
18.68942472639702
 31
0.0
  0
LINE
  5
134C
330
1F
100
AcDbEntity
  8
Cut
100
AcDbLine
 10
35.97889685278483
 20
19.07546783728296
 30
0.0
 11
36.03398414368604
 21
19.04593247054187
 31
0.0
  0
LINE
  5
134D
330
1F
100
AcDbEntity
  8
Cut
100
AcDbLine
 10
36.03398414368604
 20
19.04593247054187
 30
0.0
 11
35.89789723876235
 21
18.33731231685875
 31
0.0
  0
LINE
  5
134E
330
1F
100
AcDbEntity
  8
Cut
100
AcDbLine
 10
35.89789723876235
 20
18.33731231685875
 30
0.0
 11
35.84076699595806
 21
18.05061916875949
 31
0.0
  0
LINE
  5
134F
330
1F
100
AcDbEntity
  8
Cut
100
AcDbLine
 10
35.84076699595806
 20
18.05061916875949
 30
0.0
 11
35.78164408703643
 21
17.77517313475873
 31
0.0
  0
LINE
  5
1350
330
1F
100
AcDbEntity
  8
Cut
100
AcDbLine
 10
35.78164408703643
 20
17.77517313475873
 30
0.0
 11
35.72777559655435
 21
17.54130659555411
 31
0.0
  0
LINE
  5
1351
330
1F
100
AcDbEntity
  8
Cut
100
AcDbLine
 10
35.72777559655435
 20
17.54130659555411
 30
0.0
 11
35.69324256807606
 21
17.4187306361584
 31
0.0
  0
LINE
  5
1352
330
1F
100
AcDbEntity
  8
Cut
100
AcDbLine
 10
35.69324256807606
 20
17.4187306361584
 30
0.0
 11
35.66639061463102
 21
17.33449304795665
 31
0.0
  0
LINE
  5
1353
330
1F
100
AcDbEntity
  8
Cut
100
AcDbLine
 10
35.66639061463102
 20
17.33449304795665
 30
0.0
 11
35.64241991073085
 21
17.25502625806216
 31
0.0
  0
LINE
  5
1354
330
1F
100
AcDbEntity
  8
Cut
100
AcDbLine
 10
35.64241991073085
 20
17.25502625806216
 30
0.0
 11
35.6233122307387
 21
17.18785184948323
 31
0.0
  0
LINE
  5
1355
330
1F
100
AcDbEntity
  8
Cut
100
AcDbLine
 10
35.6233122307387
 20
17.18785184948323
 30
0.0
 11
35.61651595982548
 21
17.15627872738688
 31
0.0
  0
LINE
  5
1356
330
1F
100
AcDbEntity
  8
Cut
100
AcDbLine
 10
35.61651595982548
 20
17.15627872738688
 30
0.0
 11
35.60477517368659
 21
17.12889313047573
 31
0.0
  0
LINE
  5
1357
330
1F
100
AcDbEntity
  8
Cut
100
AcDbLine
 10
35.60477517368659
 20
17.12889313047573
 30
0.0
 11
35.58170935147749
 21
17.11188551192199
 31
0.0
  0
LINE
  5
1358
330
1F
100
AcDbEntity
  8
Cut
100
AcDbLine
 10
35.58170935147749
 20
17.11188551192199
 30
0.0
 11
35.53872114606101
 21
17.10203327722823
 31
0.0
  0
LINE
  5
1359
330
1F
100
AcDbEntity
  8
Cut
100
AcDbLine
 10
35.53872114606101
 20
17.10203327722823
 30
0.0
 11
35.45374457201974
 21
17.09579923079399
 31
0.0
  0
LINE
  5
135A
330
1F
100
AcDbEntity
  8
Cut
100
AcDbLine
 10
35.45374457201974
 20
17.09579923079399
 30
0.0
 11
35.29913202670197
 21
17.08781008971022
 31
0.0
  0
LINE
  5
135B
330
1F
100
AcDbEntity
  8
Cut
100
AcDbLine
 10
35.29913202670197
 20
17.08781008971022
 30
0.0
 11
35.31726246701182
 21
17.3713737350041
 31
0.0
  0
LINE
  5
135C
330
1F
100
AcDbEntity
  8
Cut
100
AcDbLine
 10
35.31726246701182
 20
17.3713737350041
 30
0.0
 11
35.35554958134799
 21
17.72559250482659
 31
0.0
  0
LINE
  5
135D
330
1F
100
AcDbEntity
  8
Cut
100
AcDbLine
 10
35.35554958134799
 20
17.72559250482659
 30
0.0
 11
35.42422912537852
 21
18.06763529075508
 31
0.0
  0
LINE
  5
135E
330
1F
100
AcDbEntity
  8
Cut
100
AcDbLine
 10
35.42422912537852
 20
18.06763529075508
 30
0.0
 11
35.52983964224224
 21
18.42414988489475
 31
0.0
  0
LINE
  5
135F
330
1F
100
AcDbEntity
  8
Cut
100
AcDbLine
 10
35.52983964224224
 20
18.42414988489475
 30
0.0
 11
35.67989198066433
 21
18.82284834808608
 31
0.0
  0
LINE
  5
1360
330
1F
100
AcDbEntity
  8
Cut
100
AcDbLine
 10
35.67989198066433
 20
18.82284834808608
 30
0.0
 11
35.71613231129957
 21
18.91176645113848
 31
0.0
  0
LINE
  5
1361
330
1F
100
AcDbEntity
  8
Cut
100
AcDbLine
 10
35.71613231129957
 20
18.91176645113848
 30
0.0
 11
35.74944541081551
 21
18.99442476122439
 31
0.0
  0
LINE
  5
1362
330
1F
100
AcDbEntity
  8
Cut
100
AcDbLine
 10
35.74944541081551
 20
18.99442476122439
 30
0.0
 11
35.77713508450816
 21
19.0639136544512
 31
0.0
  0
LINE
  5
1363
330
1F
100
AcDbEntity
  8
Cut
100
AcDbLine
 10
35.77713508450816
 20
19.0639136544512
 30
0.0
 11
35.78835689824265
 21
19.09367118673306
 31
0.0
  0
LINE
  5
1364
330
1F
100
AcDbEntity
  8
Cut
100
AcDbLine
 10
35.78835689824265
 20
19.09367118673306
 30
0.0
 11
35.81045571639388
 21
19.11951128308903
 31
0.0
  0
LINE
  5
1365
330
1F
100
AcDbEntity
  8
Cut
100
AcDbLine
 10
35.81045571639388
 20
19.11951128308903
 30
0.0
 11
35.84636858578254
 21
19.1268718256061
 31
0.0
  0
LINE
  5
1366
330
1F
100
AcDbEntity
  8
Cut
100
AcDbLine
 10
35.84636858578254
 20
19.1268718256061
 30
0.0
 11
35.90061705413814
 21
19.11306192110883
 31
0.0
  0
LINE
  5
1367
330
1F
100
AcDbEntity
  8
Cut
100
AcDbLine
 10
35.90061705413814
 20
19.11306192110883
 30
0.0
 11
35.97889685278483
 21
19.07546783728296
 31
0.0
  0
LINE
  5
1368
330
1F
100
AcDbEntity
  8
Cut
100
AcDbLine
 10
38.91336529342308
 20
18.79004185948963
 30
0.0
 11
38.85733472411655
 21
18.69898343487601
 31
0.0
  0
LINE
  5
1369
330
1F
100
AcDbEntity
  8
Cut
100
AcDbLine
 10
38.85733472411655
 20
18.69898343487601
 30
0.0
 11
38.789449779485
 21
18.62357693348136
 31
0.0
  0
LINE
  5
136A
330
1F
100
AcDbEntity
  8
Cut
100
AcDbLine
 10
38.789449779485
 20
18.62357693348136
 30
0.0
 11
38.69016207029108
 21
18.54468076652693
 31
0.0
  0
LINE
  5
136B
330
1F
100
AcDbEntity
  8
Cut
100
AcDbLine
 10
38.69016207029108
 20
18.54468076652693
 30
0.0
 11
38.5268220279346
 21
18.43700296846821
 31
0.0
  0
LINE
  5
136C
330
1F
100
AcDbEntity
  8
Cut
100
AcDbLine
 10
38.5268220279346
 20
18.43700296846821
 30
0.0
 11
38.40484876310219
 21
18.36209378719549
 31
0.0
  0
LINE
  5
136D
330
1F
100
AcDbEntity
  8
Cut
100
AcDbLine
 10
38.40484876310219
 20
18.36209378719549
 30
0.0
 11
38.3359274221281
 21
18.32687389582675
 31
0.0
  0
LINE
  5
136E
330
1F
100
AcDbEntity
  8
Cut
100
AcDbLine
 10
38.3359274221281
 20
18.32687389582675
 30
0.0
 11
38.29379473119866
 21
18.31567801234085
 31
0.0
  0
LINE
  5
136F
330
1F
100
AcDbEntity
  8
Cut
100
AcDbLine
 10
38.29379473119866
 20
18.31567801234085
 30
0.0
 11
38.27059319510752
 21
18.32678749665838
 31
0.0
  0
LINE
  5
1370
330
1F
100
AcDbEntity
  8
Cut
100
AcDbLine
 10
38.27059319510752
 20
18.32678749665838
 30
0.0
 11
38.25346309024796
 21
18.36406073302578
 31
0.0
  0
LINE
  5
1371
330
1F
100
AcDbEntity
  8
Cut
100
AcDbLine
 10
38.25346309024796
 20
18.36406073302578
 30
0.0
 11
38.25942158842319
 21
18.38676917447071
 31
0.0
  0
LINE
  5
1372
330
1F
100
AcDbEntity
  8
Cut
100
AcDbLine
 10
38.25942158842319
 20
18.38676917447071
 30
0.0
 11
38.29016502130035
 21
18.4055191587564
 31
0.0
  0
LINE
  5
1373
330
1F
100
AcDbEntity
  8
Cut
100
AcDbLine
 10
38.29016502130035
 20
18.4055191587564
 30
0.0
 11
38.38716372992673
 21
18.43767689247955
 31
0.0
  0
LINE
  5
1374
330
1F
100
AcDbEntity
  8
Cut
100
AcDbLine
 10
38.38716372992673
 20
18.43767689247955
 30
0.0
 11
38.51021575083976
 21
18.4871096045159
 31
0.0
  0
LINE
  5
1375
330
1F
100
AcDbEntity
  8
Cut
100
AcDbLine
 10
38.51021575083976
 20
18.4871096045159
 30
0.0
 11
38.62492355948164
 21
18.55495484017365
 31
0.0
  0
LINE
  5
1376
330
1F
100
AcDbEntity
  8
Cut
100
AcDbLine
 10
38.62492355948164
 20
18.55495484017365
 30
0.0
 11
38.73369425977886
 21
18.64308947178799
 31
0.0
  0
LINE
  5
1377
330
1F
100
AcDbEntity
  8
Cut
100
AcDbLine
 10
38.73369425977886
 20
18.64308947178799
 30
0.0
 11
38.83902327072522
 21
18.75323332047191
 31
0.0
  0
LINE
  5
1378
330
1F
100
AcDbEntity
  8
Cut
100
AcDbLine
 10
38.83902327072522
 20
18.75323332047191
 30
0.0
 11
38.87902183395849
 21
18.79944215199648
 31
0.0
  0
LINE
  5
1379
330
1F
100
AcDbEntity
  8
Cut
100
AcDbLine
 10
38.87902183395849
 20
18.79944215199648
 30
0.0
 11
38.91388053901038
 21
18.83850738375178
 31
0.0
  0
LINE
  5
137A
330
1F
100
AcDbEntity
  8
Cut
100
AcDbLine
 10
38.91388053901038
 20
18.83850738375178
 30
0.0
 11
38.94455148267033
 21
18.87207671506626
 31
0.0
  0
LINE
  5
137B
330
1F
100
AcDbEntity
  8
Cut
100
AcDbLine
 10
38.94455148267033
 20
18.87207671506626
 30
0.0
 11
38.94924176073199
 21
18.87447804505075
 31
0.0
  0
LINE
  5
137C
330
1F
100
AcDbEntity
  8
Cut
100
AcDbLine
 10
38.94924176073199
 20
18.87447804505075
 30
0.0
 11
38.95088452596457
 21
18.87233685739823
 31
0.0
  0
LINE
  5
137D
330
1F
100
AcDbEntity
  8
Cut
100
AcDbLine
 10
38.95088452596457
 20
18.87233685739823
 30
0.0
 11
38.94168760744182
 21
18.85002994112853
 31
0.0
  0
LINE
  5
137E
330
1F
100
AcDbEntity
  8
Cut
100
AcDbLine
 10
38.94168760744182
 20
18.85002994112853
 30
0.0
 11
38.92938604030946
 21
18.8227006926422
 31
0.0
  0
LINE
  5
137F
330
1F
100
AcDbEntity
  8
Cut
100
AcDbLine
 10
38.92938604030946
 20
18.8227006926422
 30
0.0
 11
38.91336529342308
 21
18.79004185948963
 31
0.0
  0
LINE
  5
1380
330
1F
100
AcDbEntity
  8
Cut
100
AcDbLine
 10
34.41601439638109
 20
18.54659986737425
 30
0.0
 11
34.49344663283359
 21
18.50655810455679
 31
0.0
  0
LINE
  5
1381
330
1F
100
AcDbEntity
  8
Cut
100
AcDbLine
 10
34.49344663283359
 20
18.50655810455679
 30
0.0
 11
34.4927406109538
 21
18.04137994298905
 31
0.0
  0
LINE
  5
1382
330
1F
100
AcDbEntity
  8
Cut
100
AcDbLine
 10
34.4927406109538
 20
18.04137994298905
 30
0.0
 11
34.49203458907402
 21
17.57620178142132
 31
0.0
  0
LINE
  5
1383
330
1F
100
AcDbEntity
  8
Cut
100
AcDbLine
 10
34.49203458907402
 20
17.57620178142132
 30
0.0
 11
34.41407406317435
 21
17.66805994949135
 31
0.0
  0
LINE
  5
1384
330
1F
100
AcDbEntity
  8
Cut
100
AcDbLine
 10
34.41407406317435
 20
17.66805994949135
 30
0.0
 11
34.3276773880999
 21
17.78860077805087
 31
0.0
  0
LINE
  5
1385
330
1F
100
AcDbEntity
  8
Cut
100
AcDbLine
 10
34.3276773880999
 20
17.78860077805087
 30
0.0
 11
34.25831953711113
 21
17.92618195291716
 31
0.0
  0
LINE
  5
1386
330
1F
100
AcDbEntity
  8
Cut
100
AcDbLine
 10
34.25831953711113
 20
17.92618195291716
 30
0.0
 11
34.20425163566878
 21
18.08522439775789
 31
0.0
  0
LINE
  5
1387
330
1F
100
AcDbEntity
  8
Cut
100
AcDbLine
 10
34.20425163566878
 20
18.08522439775789
 30
0.0
 11
34.16375850805862
 21
18.27036986327679
 31
0.0
  0
LINE
  5
1388
330
1F
100
AcDbEntity
  8
Cut
100
AcDbLine
 10
34.16375850805862
 20
18.27036986327679
 30
0.0
 11
34.13860265007401
 21
18.42487049910066
 31
0.0
  0
LINE
  5
1389
330
1F
100
AcDbEntity
  8
Cut
100
AcDbLine
 10
34.13860265007401
 20
18.42487049910066
 30
0.0
 11
34.13426424128644
 21
18.48750204885509
 31
0.0
  0
LINE
  5
138A
330
1F
100
AcDbEntity
  8
Cut
100
AcDbLine
 10
34.13426424128644
 20
18.48750204885509
 30
0.0
 11
34.14348638143763
 21
18.52388646558824
 31
0.0
  0
LINE
  5
138B
330
1F
100
AcDbEntity
  8
Cut
100
AcDbLine
 10
34.14348638143763
 20
18.52388646558824
 30
0.0
 11
34.1680983078413
 21
18.55250566520618
 31
0.0
  0
LINE
  5
138C
330
1F
100
AcDbEntity
  8
Cut
100
AcDbLine
 10
34.1680983078413
 20
18.55250566520618
 30
0.0
 11
34.21935550681187
 21
18.57738936056139
 31
0.0
  0
LINE
  5
138D
330
1F
100
AcDbEntity
  8
Cut
100
AcDbLine
 10
34.21935550681187
 20
18.57738936056139
 30
0.0
 11
34.2797269519539
 21
18.58493606021736
 31
0.0
  0
LINE
  5
138E
330
1F
100
AcDbEntity
  8
Cut
100
AcDbLine
 10
34.2797269519539
 20
18.58493606021736
 30
0.0
 11
34.34638330671011
 21
18.57453419873625
 31
0.0
  0
LINE
  5
138F
330
1F
100
AcDbEntity
  8
Cut
100
AcDbLine
 10
34.34638330671011
 20
18.57453419873625
 30
0.0
 11
34.41601439638109
 21
18.54659986737425
 31
0.0
  0
LINE
  5
1390
330
1F
100
AcDbEntity
  8
Cut
100
AcDbLine
 10
37.59492020424394
 20
18.29018689828798
 30
0.0
 11
37.65305251468111
 21
18.26453623971976
 31
0.0
  0
LINE
  5
1391
330
1F
100
AcDbEntity
  8
Cut
100
AcDbLine
 10
37.65305251468111
 20
18.26453623971976
 30
0.0
 11
37.68988874237521
 21
18.2567611281676
 31
0.0
  0
LINE
  5
1392
330
1F
100
AcDbEntity
  8
Cut
100
AcDbLine
 10
37.68988874237521
 20
18.2567611281676
 30
0.0
 11
37.72568093637622
 21
18.26192586678993
 31
0.0
  0
LINE
  5
1393
330
1F
100
AcDbEntity
  8
Cut
100
AcDbLine
 10
37.72568093637622
 20
18.26192586678993
 30
0.0
 11
37.77863654038401
 21
18.28290251931483
 31
0.0
  0
LINE
  5
1394
330
1F
100
AcDbEntity
  8
Cut
100
AcDbLine
 10
37.77863654038401
 20
18.28290251931483
 30
0.0
 11
37.81721369032456
 21
18.30230729486772
 31
0.0
  0
LINE
  5
1395
330
1F
100
AcDbEntity
  8
Cut
100
AcDbLine
 10
37.81721369032456
 20
18.30230729486772
 30
0.0
 11
37.86109811651911
 21
18.3278728927723
 31
0.0
  0
LINE
  5
1396
330
1F
100
AcDbEntity
  8
Cut
100
AcDbLine
 10
37.86109811651911
 20
18.3278728927723
 30
0.0
 11
37.90333765162062
 21
18.3552146077243
 31
0.0
  0
LINE
  5
1397
330
1F
100
AcDbEntity
  8
Cut
100
AcDbLine
 10
37.90333765162062
 20
18.3552146077243
 30
0.0
 11
37.93674129704509
 21
18.38004615388524
 31
0.0
  0
LINE
  5
1398
330
1F
100
AcDbEntity
  8
Cut
100
AcDbLine
 10
37.93674129704509
 20
18.38004615388524
 30
0.0
 11
37.98109152288731
 21
18.41217428303307
 31
0.0
  0
LINE
  5
1399
330
1F
100
AcDbEntity
  8
Cut
100
AcDbLine
 10
37.98109152288731
 20
18.41217428303307
 30
0.0
 11
38.01163798560694
 21
18.42316364311197
 31
0.0
  0
LINE
  5
139A
330
1F
100
AcDbEntity
  8
Cut
100
AcDbLine
 10
38.01163798560694
 20
18.42316364311197
 30
0.0
 11
38.04576067052587
 21
18.42024147731451
 31
0.0
  0
LINE
  5
139B
330
1F
100
AcDbEntity
  8
Cut
100
AcDbLine
 10
38.04576067052587
 20
18.42024147731451
 30
0.0
 11
38.10574381806889
 21
18.39996788096283
 31
0.0
  0
LINE
  5
139C
330
1F
100
AcDbEntity
  8
Cut
100
AcDbLine
 10
38.10574381806889
 20
18.39996788096283
 30
0.0
 11
38.16045202343308
 21
18.37450576784588
 31
0.0
  0
LINE
  5
139D
330
1F
100
AcDbEntity
  8
Cut
100
AcDbLine
 10
38.16045202343308
 20
18.37450576784588
 30
0.0
 11
38.19274289900954
 21
18.34705342941433
 31
0.0
  0
LINE
  5
139E
330
1F
100
AcDbEntity
  8
Cut
100
AcDbLine
 10
38.19274289900954
 20
18.34705342941433
 30
0.0
 11
38.21495134332307
 21
18.30658045811077
 31
0.0
  0
LINE
  5
139F
330
1F
100
AcDbEntity
  8
Cut
100
AcDbLine
 10
38.21495134332307
 20
18.30658045811077
 30
0.0
 11
38.23664616925114
 21
18.23445221726339
 31
0.0
  0
LINE
  5
13A0
330
1F
100
AcDbEntity
  8
Cut
100
AcDbLine
 10
38.23664616925114
 20
18.23445221726339
 30
0.0
 11
38.25137176845811
 21
18.18402431383417
 31
0.0
  0
LINE
  5
13A1
330
1F
100
AcDbEntity
  8
Cut
100
AcDbLine
 10
38.25137176845811
 20
18.18402431383417
 30
0.0
 11
38.26859533244239
 21
18.13847896073496
 31
0.0
  0
LINE
  5
13A2
330
1F
100
AcDbEntity
  8
Cut
100
AcDbLine
 10
38.26859533244239
 20
18.13847896073496
 30
0.0
 11
38.28589277663898
 21
18.10223668795561
 31
0.0
  0
LINE
  5
13A3
330
1F
100
AcDbEntity
  8
Cut
100
AcDbLine
 10
38.28589277663898
 20
18.10223668795561
 30
0.0
 11
38.29950770561322
 21
18.08766879610062
 31
0.0
  0
LINE
  5
13A4
330
1F
100
AcDbEntity
  8
Cut
100
AcDbLine
 10
38.29950770561322
 20
18.08766879610062
 30
0.0
 11
38.29277276971109
 21
18.0547698981871
 31
0.0
  0
LINE
  5
13A5
330
1F
100
AcDbEntity
  8
Cut
100
AcDbLine
 10
38.29277276971109
 20
18.0547698981871
 30
0.0
 11
38.1147078105226
 21
18.03749743941222
 31
0.0
  0
LINE
  5
13A6
330
1F
100
AcDbEntity
  8
Cut
100
AcDbLine
 10
38.1147078105226
 20
18.03749743941222
 30
0.0
 11
37.90120717200598
 21
18.0366047879801
 31
0.0
  0
LINE
  5
13A7
330
1F
100
AcDbEntity
  8
Cut
100
AcDbLine
 10
37.90120717200598
 20
18.0366047879801
 30
0.0
 11
37.79205400054209
 21
18.06549181977095
 31
0.0
  0
LINE
  5
13A8
330
1F
100
AcDbEntity
  8
Cut
100
AcDbLine
 10
37.79205400054209
 20
18.06549181977095
 30
0.0
 11
37.75824696653385
 21
18.08540181524822
 31
0.0
  0
LINE
  5
13A9
330
1F
100
AcDbEntity
  8
Cut
100
AcDbLine
 10
37.75824696653385
 20
18.08540181524822
 30
0.0
 11
37.68831101272563
 21
18.13210762570725
 31
0.0
  0
LINE
  5
13AA
330
1F
100
AcDbEntity
  8
Cut
100
AcDbLine
 10
37.68831101272563
 20
18.13210762570725
 30
0.0
 11
37.60603813951294
 21
18.18873028651997
 31
0.0
  0
LINE
  5
13AB
330
1F
100
AcDbEntity
  8
Cut
100
AcDbLine
 10
37.60603813951294
 20
18.18873028651997
 30
0.0
 11
37.5193871222937
 21
18.25014248470625
 31
0.0
  0
LINE
  5
13AC
330
1F
100
AcDbEntity
  8
Cut
100
AcDbLine
 10
37.5193871222937
 20
18.25014248470625
 30
0.0
 11
37.37576217862703
 21
18.3581783459041
 31
0.0
  0
LINE
  5
13AD
330
1F
100
AcDbEntity
  8
Cut
100
AcDbLine
 10
37.37576217862703
 20
18.3581783459041
 30
0.0
 11
37.32895616402924
 21
18.41591364533887
 31
0.0
  0
LINE
  5
13AE
330
1F
100
AcDbEntity
  8
Cut
100
AcDbLine
 10
37.32895616402924
 20
18.41591364533887
 30
0.0
 11
37.32872145328722
 21
18.4693674355599
 31
0.0
  0
LINE
  5
13AF
330
1F
100
AcDbEntity
  8
Cut
100
AcDbLine
 10
37.32872145328722
 20
18.4693674355599
 30
0.0
 11
37.37570913709627
 21
18.54110722133709
 31
0.0
  0
LINE
  5
13B0
330
1F
100
AcDbEntity
  8
Cut
100
AcDbLine
 10
37.37570913709627
 20
18.54110722133709
 30
0.0
 11
37.39970910438426
 21
18.56268420635812
 31
0.0
  0
LINE
  5
13B1
330
1F
100
AcDbEntity
  8
Cut
100
AcDbLine
 10
37.39970910438426
 20
18.56268420635812
 30
0.0
 11
37.41577137116261
 21
18.5613502682866
 31
0.0
  0
LINE
  5
13B2
330
1F
100
AcDbEntity
  8
Cut
100
AcDbLine
 10
37.41577137116261
 20
18.5613502682866
 30
0.0
 11
37.43051038166212
 21
18.53861198605964
 31
0.0
  0
LINE
  5
13B3
330
1F
100
AcDbEntity
  8
Cut
100
AcDbLine
 10
37.43051038166212
 20
18.53861198605964
 30
0.0
 11
37.45701676467888
 21
18.46237164870563
 31
0.0
  0
LINE
  5
13B4
330
1F
100
AcDbEntity
  8
Cut
100
AcDbLine
 10
37.45701676467888
 20
18.46237164870563
 30
0.0
 11
37.48250840363556
 21
18.3971595668034
 31
0.0
  0
LINE
  5
13B5
330
1F
100
AcDbEntity
  8
Cut
100
AcDbLine
 10
37.48250840363556
 20
18.3971595668034
 30
0.0
 11
37.50957955691482
 21
18.35301205881551
 31
0.0
  0
LINE
  5
13B6
330
1F
100
AcDbEntity
  8
Cut
100
AcDbLine
 10
37.50957955691482
 20
18.35301205881551
 30
0.0
 11
37.544704361957
 21
18.31994038881044
 31
0.0
  0
LINE
  5
13B7
330
1F
100
AcDbEntity
  8
Cut
100
AcDbLine
 10
37.544704361957
 20
18.31994038881044
 30
0.0
 11
37.59492020424394
 21
18.29018689828798
 31
0.0
  0
LINE
  5
13B8
330
1F
100
AcDbEntity
  8
Cut
100
AcDbLine
 10
37.28336149621637
 20
18.33343569220467
 30
0.0
 11
37.40666282019755
 21
18.25895895294203
 31
0.0
  0
LINE
  5
13B9
330
1F
100
AcDbEntity
  8
Cut
100
AcDbLine
 10
37.40666282019755
 20
18.25895895294203
 30
0.0
 11
37.40627237049286
 21
17.83884480767281
 31
0.0
  0
LINE
  5
13BA
330
1F
100
AcDbEntity
  8
Cut
100
AcDbLine
 10
37.40627237049286
 20
17.83884480767281
 30
0.0
 11
37.40588192078819
 21
17.4187306361584
 31
0.0
  0
LINE
  5
13BB
330
1F
100
AcDbEntity
  8
Cut
100
AcDbLine
 10
37.40588192078819
 20
17.4187306361584
 30
0.0
 11
37.31556634005715
 21
17.52371139966701
 31
0.0
  0
LINE
  5
13BC
330
1F
100
AcDbEntity
  8
Cut
100
AcDbLine
 10
37.31556634005715
 20
17.52371139966701
 30
0.0
 11
37.18771462488169
 21
17.68233552241036
 31
0.0
  0
LINE
  5
13BD
330
1F
100
AcDbEntity
  8
Cut
100
AcDbLine
 10
37.18771462488169
 20
17.68233552241036
 30
0.0
 11
37.09916545047745
 21
17.81682378026734
 31
0.0
  0
LINE
  5
13BE
330
1F
100
AcDbEntity
  8
Cut
100
AcDbLine
 10
37.09916545047745
 20
17.81682378026734
 30
0.0
 11
37.03922775960504
 21
17.94367985788168
 31
0.0
  0
LINE
  5
13BF
330
1F
100
AcDbEntity
  8
Cut
100
AcDbLine
 10
37.03922775960504
 20
17.94367985788168
 30
0.0
 11
36.9997437858293
 21
18.07761497209573
 31
0.0
  0
LINE
  5
13C0
330
1F
100
AcDbEntity
  8
Cut
100
AcDbLine
 10
36.9997437858293
 20
18.07761497209573
 30
0.0
 11
36.97396386969601
 21
18.2129456218443
 31
0.0
  0
LINE
  5
13C1
330
1F
100
AcDbEntity
  8
Cut
100
AcDbLine
 10
36.97396386969601
 20
18.2129456218443
 30
0.0
 11
36.96290036695289
 21
18.31051694804524
 31
0.0
  0
LINE
  5
13C2
330
1F
100
AcDbEntity
  8
Cut
100
AcDbLine
 10
36.96290036695289
 20
18.31051694804524
 30
0.0
 11
36.96393938781453
 21
18.37906967531346
 31
0.0
  0
LINE
  5
13C3
330
1F
100
AcDbEntity
  8
Cut
100
AcDbLine
 10
36.96393938781453
 20
18.37906967531346
 30
0.0
 11
36.98017846844381
 21
18.41398115944421
 31
0.0
  0
LINE
  5
13C4
330
1F
100
AcDbEntity
  8
Cut
100
AcDbLine
 10
36.98017846844381
 20
18.41398115944421
 30
0.0
 11
37.02009317829223
 21
18.42871639063623
 31
0.0
  0
LINE
  5
13C5
330
1F
100
AcDbEntity
  8
Cut
100
AcDbLine
 10
37.02009317829223
 20
18.42871639063623
 30
0.0
 11
37.09652893733751
 21
18.415563455757
 31
0.0
  0
LINE
  5
13C6
330
1F
100
AcDbEntity
  8
Cut
100
AcDbLine
 10
37.09652893733751
 20
18.415563455757
 30
0.0
 11
37.18863661843722
 21
18.38297792542255
 31
0.0
  0
LINE
  5
13C7
330
1F
100
AcDbEntity
  8
Cut
100
AcDbLine
 10
37.18863661843722
 20
18.38297792542255
 30
0.0
 11
37.28336149621637
 21
18.33343569220467
 31
0.0
  0
LINE
  5
13C8
330
1F
100
AcDbEntity
  8
Cut
100
AcDbLine
 10
38.59796376454728
 20
18.37011880545519
 30
0.0
 11
38.53841956782168
 21
18.28029857645677
 31
0.0
  0
LINE
  5
13C9
330
1F
100
AcDbEntity
  8
Cut
100
AcDbLine
 10
38.53841956782168
 20
18.28029857645677
 30
0.0
 11
38.47341288078326
 21
18.2063228053976
 31
0.0
  0
LINE
  5
13CA
330
1F
100
AcDbEntity
  8
Cut
100
AcDbLine
 10
38.47341288078326
 20
18.2063228053976
 30
0.0
 11
38.41231124194063
 21
18.15608494339551
 31
0.0
  0
LINE
  5
13CB
330
1F
100
AcDbEntity
  8
Cut
100
AcDbLine
 10
38.41231124194063
 20
18.15608494339551
 30
0.0
 11
38.3678657985459
 21
18.14564276930122
 31
0.0
  0
LINE
  5
13CC
330
1F
100
AcDbEntity
  8
Cut
100
AcDbLine
 10
38.3678657985459
 20
18.14564276930122
 30
0.0
 11
38.32578454819057
 21
18.16572921119676
 31
0.0
  0
LINE
  5
13CD
330
1F
100
AcDbEntity
  8
Cut
100
AcDbLine
 10
38.32578454819057
 20
18.16572921119676
 30
0.0
 11
38.31901027074731
 21
18.19941995276423
 31
0.0
  0
LINE
  5
13CE
330
1F
100
AcDbEntity
  8
Cut
100
AcDbLine
 10
38.31901027074731
 20
18.19941995276423
 30
0.0
 11
38.35687176682303
 21
18.24871674095704
 31
0.0
  0
LINE
  5
13CF
330
1F
100
AcDbEntity
  8
Cut
100
AcDbLine
 10
38.35687176682303
 20
18.24871674095704
 30
0.0
 11
38.44334785984508
 21
18.31243494659454
 31
0.0
  0
LINE
  5
13D0
330
1F
100
AcDbEntity
  8
Cut
100
AcDbLine
 10
38.44334785984508
 20
18.31243494659454
 30
0.0
 11
38.53607369392552
 21
18.37180597755073
 31
0.0
  0
LINE
  5
13D1
330
1F
100
AcDbEntity
  8
Cut
100
AcDbLine
 10
38.53607369392552
 20
18.37180597755073
 30
0.0
 11
38.58495402342948
 21
18.39577959466708
 31
0.0
  0
LINE
  5
13D2
330
1F
100
AcDbEntity
  8
Cut
100
AcDbLine
 10
38.58495402342948
 20
18.39577959466708
 30
0.0
 11
38.59909120545698
 21
18.389789628508
 31
0.0
  0
LINE
  5
13D3
330
1F
100
AcDbEntity
  8
Cut
100
AcDbLine
 10
38.59909120545698
 20
18.389789628508
 30
0.0
 11
38.59796376454728
 21
18.37011880545519
 31
0.0
  0
LINE
  5
13D4
330
1F
100
AcDbEntity
  8
Cut
100
AcDbLine
 10
38.56145121879226
 20
18.18305476399279
 30
0.0
 11
38.55932142155259
 21
18.17748275249842
 31
0.0
  0
LINE
  5
13D5
330
1F
100
AcDbEntity
  8
Cut
100
AcDbLine
 10
38.55932142155259
 20
18.17748275249842
 30
0.0
 11
38.54795953723438
 21
18.1654756301625
 31
0.0
  0
LINE
  5
13D6
330
1F
100
AcDbEntity
  8
Cut
100
AcDbLine
 10
38.54795953723438
 20
18.1654756301625
 30
0.0
 11
38.53311696321168
 21
18.15164546437788
 31
0.0
  0
LINE
  5
13D7
330
1F
100
AcDbEntity
  8
Cut
100
AcDbLine
 10
38.53311696321168
 20
18.15164546437788
 30
0.0
 11
38.51552213475725
 21
18.13712567995777
 31
0.0
  0
LINE
  5
13D8
330
1F
100
AcDbEntity
  8
Cut
100
AcDbLine
 10
38.51552213475725
 20
18.13712567995777
 30
0.0
 11
38.48587800794517
 21
18.11402768114465
 31
0.0
  0
LINE
  5
13D9
330
1F
100
AcDbEntity
  8
Cut
100
AcDbLine
 10
38.48587800794517
 20
18.11402768114465
 30
0.0
 11
38.48271564616081
 21
18.11422819440295
 31
0.0
  0
LINE
  5
13DA
330
1F
100
AcDbEntity
  8
Cut
100
AcDbLine
 10
38.48271564616081
 20
18.11422819440295
 30
0.0
 11
38.48251513290251
 21
18.11739055618731
 31
0.0
  0
LINE
  5
13DB
330
1F
100
AcDbEntity
  8
Cut
100
AcDbLine
 10
38.48251513290251
 20
18.11739055618731
 30
0.0
 11
38.50561313171563
 21
18.14703468299939
 31
0.0
  0
LINE
  5
13DC
330
1F
100
AcDbEntity
  8
Cut
100
AcDbLine
 10
38.50561313171563
 20
18.14703468299939
 30
0.0
 11
38.52899431613831
 21
18.17476952466554
 31
0.0
  0
LINE
  5
13DD
330
1F
100
AcDbEntity
  8
Cut
100
AcDbLine
 10
38.52899431613831
 20
18.17476952466554
 30
0.0
 11
38.54638939244496
 21
18.18953918954799
 31
0.0
  0
LINE
  5
13DE
330
1F
100
AcDbEntity
  8
Cut
100
AcDbLine
 10
38.54638939244496
 20
18.18953918954799
 30
0.0
 11
38.55637553010258
 21
18.19052165202329
 31
0.0
  0
LINE
  5
13DF
330
1F
100
AcDbEntity
  8
Cut
100
AcDbLine
 10
38.55637553010258
 20
18.19052165202329
 30
0.0
 11
38.56145121879226
 21
18.18305476399279
 31
0.0
  0
LINE
  5
13E0
330
1F
100
AcDbEntity
  8
Cut
100
AcDbLine
 10
37.2067542773391
 20
17.55651788826345
 30
0.0
 11
37.27744727367816
 21
17.47317074689778
 31
0.0
  0
LINE
  5
13E1
330
1F
100
AcDbEntity
  8
Cut
100
AcDbLine
 10
37.27744727367816
 20
17.47317074689778
 30
0.0
 11
37.36625351972705
 21
17.37973190971679
 31
0.0
  0
LINE
  5
13E2
330
1F
100
AcDbEntity
  8
Cut
100
AcDbLine
 10
37.36625351972705
 20
17.37973190971679
 30
0.0
 11
37.45827973575427
 21
17.29088571848739
 31
0.0
  0
LINE
  5
13E3
330
1F
100
AcDbEntity
  8
Cut
100
AcDbLine
 10
37.45827973575427
 20
17.29088571848739
 30
0.0
 11
37.53875449844958
 21
17.22189170457976
 31
0.0
  0
LINE
  5
13E4
330
1F
100
AcDbEntity
  8
Cut
100
AcDbLine
 10
37.53875449844958
 20
17.22189170457976
 30
0.0
 11
37.72051428185495
 21
17.07754315475542
 31
0.0
  0
LINE
  5
13E5
330
1F
100
AcDbEntity
  8
Cut
100
AcDbLine
 10
37.72051428185495
 20
17.07754315475542
 30
0.0
 11
37.6293828693655
 21
17.06940837910747
 31
0.0
  0
LINE
  5
13E6
330
1F
100
AcDbEntity
  8
Cut
100
AcDbLine
 10
37.6293828693655
 20
17.06940837910747
 30
0.0
 11
37.58213139514294
 21
17.06968655188558
 31
0.0
  0
LINE
  5
13E7
330
1F
100
AcDbEntity
  8
Cut
100
AcDbLine
 10
37.58213139514294
 20
17.06968655188558
 30
0.0
 11
37.51096758632473
 21
17.07895994889454
 31
0.0
  0
LINE
  5
13E8
330
1F
100
AcDbEntity
  8
Cut
100
AcDbLine
 10
37.51096758632473
 20
17.07895994889454
 30
0.0
 11
37.43137432085541
 21
17.0940118020693
 31
0.0
  0
LINE
  5
13E9
330
1F
100
AcDbEntity
  8
Cut
100
AcDbLine
 10
37.43137432085541
 20
17.0940118020693
 30
0.0
 11
37.35423870755021
 21
17.11334773648652
 31
0.0
  0
LINE
  5
13EA
330
1F
100
AcDbEntity
  8
Cut
100
AcDbLine
 10
37.35423870755021
 20
17.11334773648652
 30
0.0
 11
37.24861879490816
 21
17.14165141641974
 31
0.0
  0
LINE
  5
13EB
330
1F
100
AcDbEntity
  8
Cut
100
AcDbLine
 10
37.24861879490816
 20
17.14165141641974
 30
0.0
 11
37.19500123469606
 21
17.14999255800355
 31
0.0
  0
LINE
  5
13EC
330
1F
100
AcDbEntity
  8
Cut
100
AcDbLine
 10
37.19500123469606
 20
17.14999255800355
 30
0.0
 11
37.16036829077611
 21
17.14505594258032
 31
0.0
  0
LINE
  5
13ED
330
1F
100
AcDbEntity
  8
Cut
100
AcDbLine
 10
37.16036829077611
 20
17.14505594258032
 30
0.0
 11
37.13169709943503
 21
17.12689298447898
 31
0.0
  0
LINE
  5
13EE
330
1F
100
AcDbEntity
  8
Cut
100
AcDbLine
 10
37.13169709943503
 20
17.12689298447898
 30
0.0
 11
37.07859208155557
 21
17.09664235755092
 31
0.0
  0
LINE
  5
13EF
330
1F
100
AcDbEntity
  8
Cut
100
AcDbLine
 10
37.07859208155557
 20
17.09664235755092
 30
0.0
 11
36.96835742451122
 21
17.07439205215794
 31
0.0
  0
LINE
  5
13F0
330
1F
100
AcDbEntity
  8
Cut
100
AcDbLine
 10
36.96835742451122
 20
17.07439205215794
 30
0.0
 11
36.85736840194548
 21
17.06252573527108
 31
0.0
  0
LINE
  5
13F1
330
1F
100
AcDbEntity
  8
Cut
100
AcDbLine
 10
36.85736840194548
 20
17.06252573527108
 30
0.0
 11
36.82330332522052
 21
17.08086899783375
 31
0.0
  0
LINE
  5
13F2
330
1F
100
AcDbEntity
  8
Cut
100
AcDbLine
 10
36.82330332522052
 20
17.08086899783375
 30
0.0
 11
36.82064130175505
 21
17.10864220996896
 31
0.0
  0
LINE
  5
13F3
330
1F
100
AcDbEntity
  8
Cut
100
AcDbLine
 10
36.82064130175505
 20
17.10864220996896
 30
0.0
 11
36.92705127337806
 21
17.4208140581458
 31
0.0
  0
LINE
  5
13F4
330
1F
100
AcDbEntity
  8
Cut
100
AcDbLine
 10
36.92705127337806
 20
17.4208140581458
 30
0.0
 11
37.03524048522622
 21
17.7352107111533
 31
0.0
  0
LINE
  5
13F5
330
1F
100
AcDbEntity
  8
Cut
100
AcDbLine
 10
37.03524048522622
 20
17.7352107111533
 30
0.0
 11
37.05150069323416
 21
17.74679552212281
 31
0.0
  0
LINE
  5
13F6
330
1F
100
AcDbEntity
  8
Cut
100
AcDbLine
 10
37.05150069323416
 20
17.74679552212281
 30
0.0
 11
37.05477877006509
 21
17.74524196429403
 31
0.0
  0
LINE
  5
13F7
330
1F
100
AcDbEntity
  8
Cut
100
AcDbLine
 10
37.05477877006509
 20
17.74524196429403
 30
0.0
 11
37.09917437384235
 21
17.69090148029922
 31
0.0
  0
LINE
  5
13F8
330
1F
100
AcDbEntity
  8
Cut
100
AcDbLine
 10
37.09917437384235
 20
17.69090148029922
 30
0.0
 11
37.14879080221485
 21
17.62947093672452
 31
0.0
  0
LINE
  5
13F9
330
1F
100
AcDbEntity
  8
Cut
100
AcDbLine
 10
37.14879080221485
 20
17.62947093672452
 30
0.0
 11
37.2067542773391
 21
17.55651788826345
 31
0.0
  0
LINE
  5
13FA
330
1F
100
AcDbEntity
  8
Cut
100
AcDbLine
 10
38.26774580185888
 20
16.4502484753847
 30
0.0
 11
38.32788009545616
 21
16.40683210592426
 31
0.0
  0
LINE
  5
13FB
330
1F
100
AcDbEntity
  8
Cut
100
AcDbLine
 10
38.32788009545616
 20
16.40683210592426
 30
0.0
 11
38.40229681196725
 21
16.32671440905083
 31
0.0
  0
LINE
  5
13FC
330
1F
100
AcDbEntity
  8
Cut
100
AcDbLine
 10
38.40229681196725
 20
16.32671440905083
 30
0.0
 11
38.46758676335082
 21
16.2423144943435
 31
0.0
  0
LINE
  5
13FD
330
1F
100
AcDbEntity
  8
Cut
100
AcDbLine
 10
38.46758676335082
 20
16.2423144943435
 30
0.0
 11
38.48271564616081
 21
16.19485455456981
 31
0.0
  0
LINE
  5
13FE
330
1F
100
AcDbEntity
  8
Cut
100
AcDbLine
 10
38.48271564616081
 20
16.19485455456981
 30
0.0
 11
38.47728268168771
 21
16.18660508743773
 31
0.0
  0
LINE
  5
13FF
330
1F
100
AcDbEntity
  8
Cut
100
AcDbLine
 10
38.47728268168771
 20
16.18660508743773
 30
0.0
 11
38.44330791466457
 21
16.17301666610627
 31
0.0
  0
LINE
  5
1400
330
1F
100
AcDbEntity
  8
Cut
100
AcDbLine
 10
38.44330791466457
 20
16.17301666610627
 30
0.0
 11
38.39998243230013
 21
16.15873883610086
 31
0.0
  0
LINE
  5
1401
330
1F
100
AcDbEntity
  8
Cut
100
AcDbLine
 10
38.39998243230013
 20
16.15873883610086
 30
0.0
 11
38.34856167330003
 21
16.14513645232786
 31
0.0
  0
LINE
  5
1402
330
1F
100
AcDbEntity
  8
Cut
100
AcDbLine
 10
38.34856167330003
 20
16.14513645232786
 30
0.0
 11
38.26261402719629
 21
16.12647184364809
 31
0.0
  0
LINE
  5
1403
330
1F
100
AcDbEntity
  8
Cut
100
AcDbLine
 10
38.26261402719629
 20
16.12647184364809
 30
0.0
 11
38.22460721149869
 21
16.12667792088686
 31
0.0
  0
LINE
  5
1404
330
1F
100
AcDbEntity
  8
Cut
100
AcDbLine
 10
38.22460721149869
 20
16.12667792088686
 30
0.0
 11
38.19574915439857
 21
16.14202025583425
 31
0.0
  0
LINE
  5
1405
330
1F
100
AcDbEntity
  8
Cut
100
AcDbLine
 10
38.19574915439857
 20
16.14202025583425
 30
0.0
 11
38.15734963190987
 21
16.18451103614802
 31
0.0
  0
LINE
  5
1406
330
1F
100
AcDbEntity
  8
Cut
100
AcDbLine
 10
38.15734963190987
 20
16.18451103614802
 30
0.0
 11
38.08696538399629
 21
16.24009391498857
 31
0.0
  0
LINE
  5
1407
330
1F
100
AcDbEntity
  8
Cut
100
AcDbLine
 10
38.08696538399629
 20
16.24009391498857
 30
0.0
 11
37.99775412216178
 21
16.26027515451356
 31
0.0
  0
LINE
  5
1408
330
1F
100
AcDbEntity
  8
Cut
100
AcDbLine
 10
37.99775412216178
 20
16.26027515451356
 30
0.0
 11
37.90743827897884
 21
16.24117710650646
 31
0.0
  0
LINE
  5
1409
330
1F
100
AcDbEntity
  8
Cut
100
AcDbLine
 10
37.90743827897884
 20
16.24117710650646
 30
0.0
 11
37.83404979655592
 21
16.18636764719587
 31
0.0
  0
LINE
  5
140A
330
1F
100
AcDbEntity
  8
Cut
100
AcDbLine
 10
37.83404979655592
 20
16.18636764719587
 30
0.0
 11
37.78591855728997
 21
16.08935628838748
 31
0.0
  0
LINE
  5
140B
330
1F
100
AcDbEntity
  8
Cut
100
AcDbLine
 10
37.78591855728997
 20
16.08935628838748
 30
0.0
 11
37.76933891906387
 21
15.94056755092535
 31
0.0
  0
LINE
  5
140C
330
1F
100
AcDbEntity
  8
Cut
100
AcDbLine
 10
37.76933891906387
 20
15.94056755092535
 30
0.0
 11
37.78263924693507
 21
15.79075288895184
 31
0.0
  0
LINE
  5
140D
330
1F
100
AcDbEntity
  8
Cut
100
AcDbLine
 10
37.78263924693507
 20
15.79075288895184
 30
0.0
 11
37.82849075018585
 21
15.69008743846282
 31
0.0
  0
LINE
  5
140E
330
1F
100
AcDbEntity
  8
Cut
100
AcDbLine
 10
37.82849075018585
 20
15.69008743846282
 30
0.0
 11
37.91794136816115
 21
15.62850483025218
 31
0.0
  0
LINE
  5
140F
330
1F
100
AcDbEntity
  8
Cut
100
AcDbLine
 10
37.91794136816115
 20
15.62850483025218
 30
0.0
 11
38.03065391241179
 21
15.62513145713317
 31
0.0
  0
LINE
  5
1410
330
1F
100
AcDbEntity
  8
Cut
100
AcDbLine
 10
38.03065391241179
 20
15.62513145713317
 30
0.0
 11
38.13525356950367
 21
15.68145946318791
 31
0.0
  0
LINE
  5
1411
330
1F
100
AcDbEntity
  8
Cut
100
AcDbLine
 10
38.13525356950367
 20
15.68145946318791
 30
0.0
 11
38.20126933164095
 21
15.7820038971018
 31
0.0
  0
LINE
  5
1412
330
1F
100
AcDbEntity
  8
Cut
100
AcDbLine
 10
38.20126933164095
 20
15.7820038971018
 30
0.0
 11
38.21557878710137
 21
15.80363539338427
 31
0.0
  0
LINE
  5
1413
330
1F
100
AcDbEntity
  8
Cut
100
AcDbLine
 10
38.21557878710137
 20
15.80363539338427
 30
0.0
 11
38.23654113599724
 21
15.81197202079525
 31
0.0
  0
LINE
  5
1414
330
1F
100
AcDbEntity
  8
Cut
100
AcDbLine
 10
38.23654113599724
 20
15.81197202079525
 30
0.0
 11
38.27390686041729
 21
15.80770946060932
 31
0.0
  0
LINE
  5
1415
330
1F
100
AcDbEntity
  8
Cut
100
AcDbLine
 10
38.27390686041729
 20
15.80770946060932
 30
0.0
 11
38.36057897877
 21
15.78482305052506
 31
0.0
  0
LINE
  5
1416
330
1F
100
AcDbEntity
  8
Cut
100
AcDbLine
 10
38.36057897877
 20
15.78482305052506
 30
0.0
 11
38.45060323788231
 21
15.75818675381345
 31
0.0
  0
LINE
  5
1417
330
1F
100
AcDbEntity
  8
Cut
100
AcDbLine
 10
38.45060323788231
 20
15.75818675381345
 30
0.0
 11
38.48086769602596
 21
15.74111378473443
 31
0.0
  0
LINE
  5
1418
330
1F
100
AcDbEntity
  8
Cut
100
AcDbLine
 10
38.48086769602596
 20
15.74111378473443
 30
0.0
 11
38.48952241515037
 21
15.71859417743786
 31
0.0
  0
LINE
  5
1419
330
1F
100
AcDbEntity
  8
Cut
100
AcDbLine
 10
38.48952241515037
 20
15.71859417743786
 30
0.0
 11
38.47998963691997
 21
15.6793780883254
 31
0.0
  0
LINE
  5
141A
330
1F
100
AcDbEntity
  8
Cut
100
AcDbLine
 10
38.47998963691997
 20
15.6793780883254
 30
0.0
 11
38.40523362258121
 21
15.54323717079888
 31
0.0
  0
LINE
  5
141B
330
1F
100
AcDbEntity
  8
Cut
100
AcDbLine
 10
38.40523362258121
 20
15.54323717079888
 30
0.0
 11
38.30277512689666
 21
15.45078638631884
 31
0.0
  0
LINE
  5
141C
330
1F
100
AcDbEntity
  8
Cut
100
AcDbLine
 10
38.30277512689666
 20
15.45078638631884
 30
0.0
 11
38.16434074712015
 21
15.39837069837777
 31
0.0
  0
LINE
  5
141D
330
1F
100
AcDbEntity
  8
Cut
100
AcDbLine
 10
38.16434074712015
 20
15.39837069837777
 30
0.0
 11
37.98149598752392
 21
15.38165364033223
 31
0.0
  0
LINE
  5
141E
330
1F
100
AcDbEntity
  8
Cut
100
AcDbLine
 10
37.98149598752392
 20
15.38165364033223
 30
0.0
 11
37.81395277784846
 21
15.39644102071853
 31
0.0
  0
LINE
  5
141F
330
1F
100
AcDbEntity
  8
Cut
100
AcDbLine
 10
37.81395277784846
 20
15.39644102071853
 30
0.0
 11
37.68783521366022
 21
15.44082442048203
 31
0.0
  0
LINE
  5
1420
330
1F
100
AcDbEntity
  8
Cut
100
AcDbLine
 10
37.68783521366022
 20
15.44082442048203
 30
0.0
 11
37.58937735115664
 21
15.52091382503969
 31
0.0
  0
LINE
  5
1421
330
1F
100
AcDbEntity
  8
Cut
100
AcDbLine
 10
37.58937735115664
 20
15.52091382503969
 30
0.0
 11
37.50635289441281
 21
15.64361594506795
 31
0.0
  0
LINE
  5
1422
330
1F
100
AcDbEntity
  8
Cut
100
AcDbLine
 10
37.50635289441281
 20
15.64361594506795
 30
0.0
 11
37.43268944112508
 21
15.89168960973376
 31
0.0
  0
LINE
  5
1423
330
1F
100
AcDbEntity
  8
Cut
100
AcDbLine
 10
37.43268944112508
 20
15.89168960973376
 30
0.0
 11
37.45951512313405
 21
16.14456131521498
 31
0.0
  0
LINE
  5
1424
330
1F
100
AcDbEntity
  8
Cut
100
AcDbLine
 10
37.45951512313405
 20
16.14456131521498
 30
0.0
 11
37.57990370334129
 21
16.35200070563409
 31
0.0
  0
LINE
  5
1425
330
1F
100
AcDbEntity
  8
Cut
100
AcDbLine
 10
37.57990370334129
 20
16.35200070563409
 30
0.0
 11
37.77025133312472
 21
16.47364711285931
 31
0.0
  0
LINE
  5
1426
330
1F
100
AcDbEntity
  8
Cut
100
AcDbLine
 10
37.77025133312472
 20
16.47364711285931
 30
0.0
 11
37.89049294026304
 21
16.49844779467578
 31
0.0
  0
LINE
  5
1427
330
1F
100
AcDbEntity
  8
Cut
100
AcDbLine
 10
37.89049294026304
 20
16.49844779467578
 30
0.0
 11
38.03099168801838
 21
16.50192063706822
 31
0.0
  0
LINE
  5
1428
330
1F
100
AcDbEntity
  8
Cut
100
AcDbLine
 10
38.03099168801838
 20
16.50192063706822
 30
0.0
 11
38.16584879578795
 21
16.48570089914461
 31
0.0
  0
LINE
  5
1429
330
1F
100
AcDbEntity
  8
Cut
100
AcDbLine
 10
38.16584879578795
 20
16.48570089914461
 30
0.0
 11
38.26774580185888
 21
16.4502484753847
 31
0.0
  0
LINE
  5
142A
330
1F
100
AcDbEntity
  8
Cut
100
AcDbLine
 10
40.69561030421623
 20
16.47524720341152
 30
0.0
 11
40.77711852379272
 21
16.43903453520747
 31
0.0
  0
LINE
  5
142B
330
1F
100
AcDbEntity
  8
Cut
100
AcDbLine
 10
40.77711852379272
 20
16.43903453520747
 30
0.0
 11
40.84326519694208
 21
16.39399967731602
 31
0.0
  0
LINE
  5
142C
330
1F
100
AcDbEntity
  8
Cut
100
AcDbLine
 10
40.84326519694208
 20
16.39399967731602
 30
0.0
 11
40.89710702231022
 21
16.33750490931844
 31
0.0
  0
LINE
  5
142D
330
1F
100
AcDbEntity
  8
Cut
100
AcDbLine
 10
40.89710702231022
 20
16.33750490931844
 30
0.0
 11
40.94180294980669
 21
16.26708273710404
 31
0.0
  0
LINE
  5
142E
330
1F
100
AcDbEntity
  8
Cut
100
AcDbLine
 10
40.94180294980669
 20
16.26708273710404
 30
0.0
 11
40.9629242920689
 21
16.21054301109449
 31
0.0
  0
LINE
  5
142F
330
1F
100
AcDbEntity
  8
Cut
100
AcDbLine
 10
40.9629242920689
 20
16.21054301109449
 30
0.0
 11
40.95381652845956
 21
16.17705750691968
 31
0.0
  0
LINE
  5
1430
330
1F
100
AcDbEntity
  8
Cut
100
AcDbLine
 10
40.95381652845956
 20
16.17705750691968
 30
0.0
 11
40.91413135905056
 21
16.15461120244123
 31
0.0
  0
LINE
  5
1431
330
1F
100
AcDbEntity
  8
Cut
100
AcDbLine
 10
40.91413135905056
 20
16.15461120244123
 30
0.0
 11
40.81404634720298
 21
16.1350422894646
 31
0.0
  0
LINE
  5
1432
330
1F
100
AcDbEntity
  8
Cut
100
AcDbLine
 10
40.81404634720298
 20
16.1350422894646
 30
0.0
 11
40.75573131774692
 21
16.12883393707222
 31
0.0
  0
LINE
  5
1433
330
1F
100
AcDbEntity
  8
Cut
100
AcDbLine
 10
40.75573131774692
 20
16.12883393707222
 30
0.0
 11
40.71887417263569
 21
16.13385493078412
 31
0.0
  0
LINE
  5
1434
330
1F
100
AcDbEntity
  8
Cut
100
AcDbLine
 10
40.71887417263569
 20
16.13385493078412
 30
0.0
 11
40.68786713306136
 21
16.15189487767582
 31
0.0
  0
LINE
  5
1435
330
1F
100
AcDbEntity
  8
Cut
100
AcDbLine
 10
40.68786713306136
 20
16.15189487767582
 30
0.0
 11
40.65043188513069
 21
16.19005378425456
 31
0.0
  0
LINE
  5
1436
330
1F
100
AcDbEntity
  8
Cut
100
AcDbLine
 10
40.65043188513069
 20
16.19005378425456
 30
0.0
 11
40.58236815825888
 21
16.24083339948673
 31
0.0
  0
LINE
  5
1437
330
1F
100
AcDbEntity
  8
Cut
100
AcDbLine
 10
40.58236815825888
 20
16.24083339948673
 30
0.0
 11
40.49611084514799
 21
16.26073413041162
 31
0.0
  0
LINE
  5
1438
330
1F
100
AcDbEntity
  8
Cut
100
AcDbLine
 10
40.49611084514799
 20
16.26073413041162
 30
0.0
 11
40.40839768505394
 21
16.24641265465378
 31
0.0
  0
LINE
  5
1439
330
1F
100
AcDbEntity
  8
Cut
100
AcDbLine
 10
40.40839768505394
 20
16.24641265465378
 30
0.0
 11
40.3362339607085
 21
16.20010354025486
 31
0.0
  0
LINE
  5
143A
330
1F
100
AcDbEntity
  8
Cut
100
AcDbLine
 10
40.3362339607085
 20
16.20010354025486
 30
0.0
 11
40.30709993542632
 21
16.16126021158843
 31
0.0
  0
LINE
  5
143B
330
1F
100
AcDbEntity
  8
Cut
100
AcDbLine
 10
40.30709993542632
 20
16.16126021158843
 30
0.0
 11
40.29052901060358
 21
16.11636605416527
 31
0.0
  0
LINE
  5
143C
330
1F
100
AcDbEntity
  8
Cut
100
AcDbLine
 10
40.29052901060358
 20
16.11636605416527
 30
0.0
 11
40.28256230915801
 21
16.05041364791877
 31
0.0
  0
LINE
  5
143D
330
1F
100
AcDbEntity
  8
Cut
100
AcDbLine
 10
40.28256230915801
 20
16.05041364791877
 30
0.0
 11
40.28051122124577
 21
15.93282947133752
 31
0.0
  0
LINE
  5
143E
330
1F
100
AcDbEntity
  8
Cut
100
AcDbLine
 10
40.28051122124577
 20
15.93282947133752
 30
0.0
 11
40.28241426003628
 21
15.8089005461069
 31
0.0
  0
LINE
  5
143F
330
1F
100
AcDbEntity
  8
Cut
100
AcDbLine
 10
40.28241426003628
 20
15.8089005461069
 30
0.0
 11
40.29055026920819
 21
15.7474259893471
 31
0.0
  0
LINE
  5
1440
330
1F
100
AcDbEntity
  8
Cut
100
AcDbLine
 10
40.29055026920819
 20
15.7474259893471
 30
0.0
 11
40.30869671908447
 21
15.70718226978585
 31
0.0
  0
LINE
  5
1441
330
1F
100
AcDbEntity
  8
Cut
100
AcDbLine
 10
40.30869671908447
 20
15.70718226978585
 30
0.0
 11
40.3424704479455
 21
15.67110660147818
 31
0.0
  0
LINE
  5
1442
330
1F
100
AcDbEntity
  8
Cut
100
AcDbLine
 10
40.3424704479455
 20
15.67110660147818
 30
0.0
 11
40.39979577125358
 21
15.63893603385669
 31
0.0
  0
LINE
  5
1443
330
1F
100
AcDbEntity
  8
Cut
100
AcDbLine
 10
40.39979577125358
 20
15.63893603385669
 30
0.0
 11
40.4711687017527
 21
15.62311792608907
 31
0.0
  0
LINE
  5
1444
330
1F
100
AcDbEntity
  8
Cut
100
AcDbLine
 10
40.4711687017527
 20
15.62311792608907
 30
0.0
 11
40.54427349990741
 21
15.62530551523907
 31
0.0
  0
LINE
  5
1445
330
1F
100
AcDbEntity
  8
Cut
100
AcDbLine
 10
40.54427349990741
 20
15.62530551523907
 30
0.0
 11
40.60670196437484
 21
15.64617723949084
 31
0.0
  0
LINE
  5
1446
330
1F
100
AcDbEntity
  8
Cut
100
AcDbLine
 10
40.60670196437484
 20
15.64617723949084
 30
0.0
 11
40.62707502999994
 21
15.66131462574267
 31
0.0
  0
LINE
  5
1447
330
1F
100
AcDbEntity
  8
Cut
100
AcDbLine
 10
40.62707502999994
 20
15.66131462574267
 30
0.0
 11
40.64945905464044
 21
15.68681038519433
 31
0.0
  0
LINE
  5
1448
330
1F
100
AcDbEntity
  8
Cut
100
AcDbLine
 10
40.64945905464044
 20
15.68681038519433
 30
0.0
 11
40.67024479964689
 21
15.71748342846956
 31
0.0
  0
LINE
  5
1449
330
1F
100
AcDbEntity
  8
Cut
100
AcDbLine
 10
40.67024479964689
 20
15.71748342846956
 30
0.0
 11
40.68602569173385
 21
15.74905634060439
 31
0.0
  0
LINE
  5
144A
330
1F
100
AcDbEntity
  8
Cut
100
AcDbLine
 10
40.68602569173385
 20
15.74905634060439
 30
0.0
 11
40.71818395036082
 21
15.82669326330054
 31
0.0
  0
LINE
  5
144B
330
1F
100
AcDbEntity
  8
Cut
100
AcDbLine
 10
40.71818395036082
 20
15.82669326330054
 30
0.0
 11
40.85365766264486
 21
15.78673608873328
 31
0.0
  0
LINE
  5
144C
330
1F
100
AcDbEntity
  8
Cut
100
AcDbLine
 10
40.85365766264486
 20
15.78673608873328
 30
0.0
 11
40.906249770759
 21
15.77078113854043
 31
0.0
  0
LINE
  5
144D
330
1F
100
AcDbEntity
  8
Cut
100
AcDbLine
 10
40.906249770759
 20
15.77078113854043
 30
0.0
 11
40.95209242938046
 21
15.75590791013478
 31
0.0
  0
LINE
  5
144E
330
1F
100
AcDbEntity
  8
Cut
100
AcDbLine
 10
40.95209242938046
 20
15.75590791013478
 30
0.0
 11
40.99072235839986
 21
15.7426452178673
 31
0.0
  0
LINE
  5
144F
330
1F
100
AcDbEntity
  8
Cut
100
AcDbLine
 10
40.99072235839986
 20
15.7426452178673
 30
0.0
 11
40.99851508047512
 21
15.73789914252984
 31
0.0
  0
LINE
  5
1450
330
1F
100
AcDbEntity
  8
Cut
100
AcDbLine
 10
40.99851508047512
 20
15.73789914252984
 30
0.0
 11
41.00284482834969
 21
15.70557469935424
 31
0.0
  0
LINE
  5
1451
330
1F
100
AcDbEntity
  8
Cut
100
AcDbLine
 10
41.00284482834969
 20
15.70557469935424
 30
0.0
 11
40.93559533227966
 21
15.60221706967543
 31
0.0
  0
LINE
  5
1452
330
1F
100
AcDbEntity
  8
Cut
100
AcDbLine
 10
40.93559533227966
 20
15.60221706967543
 30
0.0
 11
40.85905104937011
 21
15.50231354332276
 31
0.0
  0
LINE
  5
1453
330
1F
100
AcDbEntity
  8
Cut
100
AcDbLine
 10
40.85905104937011
 20
15.50231354332276
 30
0.0
 11
40.79497252350706
 21
15.44479576402999
 31
0.0
  0
LINE
  5
1454
330
1F
100
AcDbEntity
  8
Cut
100
AcDbLine
 10
40.79497252350706
 20
15.44479576402999
 30
0.0
 11
40.74027442254135
 21
15.41428843288996
 31
0.0
  0
LINE
  5
1455
330
1F
100
AcDbEntity
  8
Cut
100
AcDbLine
 10
40.74027442254135
 20
15.41428843288996
 30
0.0
 11
40.68556545606663
 21
15.39634247002678
 31
0.0
  0
LINE
  5
1456
330
1F
100
AcDbEntity
  8
Cut
100
AcDbLine
 10
40.68556545606663
 20
15.39634247002678
 30
0.0
 11
40.61644339187271
 21
15.38733708890706
 31
0.0
  0
LINE
  5
1457
330
1F
100
AcDbEntity
  8
Cut
100
AcDbLine
 10
40.61644339187271
 20
15.38733708890706
 30
0.0
 11
40.51199375229188
 21
15.38472834317906
 31
0.0
  0
LINE
  5
1458
330
1F
100
AcDbEntity
  8
Cut
100
AcDbLine
 10
40.51199375229188
 20
15.38472834317906
 30
0.0
 11
40.43145775956624
 21
15.38738199442865
 31
0.0
  0
LINE
  5
1459
330
1F
100
AcDbEntity
  8
Cut
100
AcDbLine
 10
40.43145775956624
 20
15.38738199442865
 30
0.0
 11
40.34973708516961
 21
15.39533486465863
 31
0.0
  0
LINE
  5
145A
330
1F
100
AcDbEntity
  8
Cut
100
AcDbLine
 10
40.34973708516961
 20
15.39533486465863
 30
0.0
 11
40.27788620349943
 21
15.40690269498964
 31
0.0
  0
LINE
  5
145B
330
1F
100
AcDbEntity
  8
Cut
100
AcDbLine
 10
40.27788620349943
 20
15.40690269498964
 30
0.0
 11
40.23177621136369
 21
15.42083561069655
 31
0.0
  0
LINE
  5
145C
330
1F
100
AcDbEntity
  8
Cut
100
AcDbLine
 10
40.23177621136369
 20
15.42083561069655
 30
0.0
 11
40.06476425684197
 21
15.55101858119686
 31
0.0
  0
LINE
  5
145D
330
1F
100
AcDbEntity
  8
Cut
100
AcDbLine
 10
40.06476425684197
 20
15.55101858119686
 30
0.0
 11
39.96076991883248
 21
15.76537392059959
 31
0.0
  0
LINE
  5
145E
330
1F
100
AcDbEntity
  8
Cut
100
AcDbLine
 10
39.96076991883248
 20
15.76537392059959
 30
0.0
 11
39.93948407171385
 21
16.01821607399587
 31
0.0
  0
LINE
  5
145F
330
1F
100
AcDbEntity
  8
Cut
100
AcDbLine
 10
39.93948407171385
 20
16.01821607399587
 30
0.0
 11
40.00841942761988
 21
16.25699710392782
 31
0.0
  0
LINE
  5
1460
330
1F
100
AcDbEntity
  8
Cut
100
AcDbLine
 10
40.00841942761988
 20
16.25699710392782
 30
0.0
 11
40.12072028980641
 21
16.39073285967197
 31
0.0
  0
LINE
  5
1461
330
1F
100
AcDbEntity
  8
Cut
100
AcDbLine
 10
40.12072028980641
 20
16.39073285967197
 30
0.0
 11
40.29391450900078
 21
16.47984396985808
 31
0.0
  0
LINE
  5
1462
330
1F
100
AcDbEntity
  8
Cut
100
AcDbLine
 10
40.29391450900078
 20
16.47984396985808
 30
0.0
 11
40.49710532792071
 21
16.51045352601658
 31
0.0
  0
LINE
  5
1463
330
1F
100
AcDbEntity
  8
Cut
100
AcDbLine
 10
40.49710532792071
 20
16.51045352601658
 30
0.0
 11
40.69561030421623
 21
16.47524720341152
 31
0.0
  0
LINE
  5
1464
330
1F
100
AcDbEntity
  8
Cut
100
AcDbLine
 10
33.12869670722165
 20
16.06710330598504
 30
0.0
 11
33.12869670722165
 21
15.64718025195059
 31
0.0
  0
LINE
  5
1465
330
1F
100
AcDbEntity
  8
Cut
100
AcDbLine
 10
33.12869670722165
 20
15.64718025195059
 30
0.0
 11
33.40427121143175
 21
15.64718025195059
 31
0.0
  0
LINE
  5
1466
330
1F
100
AcDbEntity
  8
Cut
100
AcDbLine
 10
33.40427121143175
 20
15.64718025195059
 30
0.0
 11
33.67984571564185
 21
15.64718025195059
 31
0.0
  0
LINE
  5
1467
330
1F
100
AcDbEntity
  8
Cut
100
AcDbLine
 10
33.67984571564185
 20
15.64718025195059
 30
0.0
 11
33.67984571564185
 21
15.51595429756483
 31
0.0
  0
LINE
  5
1468
330
1F
100
AcDbEntity
  8
Cut
100
AcDbLine
 10
33.67984571564185
 20
15.51595429756483
 30
0.0
 11
33.67984571564185
 21
15.38472834317906
 31
0.0
  0
LINE
  5
1469
330
1F
100
AcDbEntity
  8
Cut
100
AcDbLine
 10
33.67984571564185
 20
15.38472834317906
 30
0.0
 11
33.24680006616883
 21
15.38472834317906
 31
0.0
  0
LINE
  5
146A
330
1F
100
AcDbEntity
  8
Cut
100
AcDbLine
 10
33.24680006616883
 20
15.38472834317906
 30
0.0
 11
32.81375441669582
 21
15.38472834317906
 31
0.0
  0
LINE
  5
146B
330
1F
100
AcDbEntity
  8
Cut
100
AcDbLine
 10
32.81375441669582
 20
15.38472834317906
 30
0.0
 11
32.81375441669582
 21
15.93587735159927
 31
0.0
  0
LINE
  5
146C
330
1F
100
AcDbEntity
  8
Cut
100
AcDbLine
 10
32.81375441669582
 20
15.93587735159927
 30
0.0
 11
32.81375441669582
 21
16.48702636001948
 31
0.0
  0
LINE
  5
146D
330
1F
100
AcDbEntity
  8
Cut
100
AcDbLine
 10
32.81375441669582
 20
16.48702636001948
 30
0.0
 11
32.97122556195873
 21
16.48702636001948
 31
0.0
  0
LINE
  5
146E
330
1F
100
AcDbEntity
  8
Cut
100
AcDbLine
 10
32.97122556195873
 20
16.48702636001948
 30
0.0
 11
33.12869670722165
 21
16.48702636001948
 31
0.0
  0
LINE
  5
146F
330
1F
100
AcDbEntity
  8
Cut
100
AcDbLine
 10
33.12869670722165
 20
16.48702636001948
 30
0.0
 11
33.12869670722165
 21
16.06710330598504
 31
0.0
  0
LINE
  5
1470
330
1F
100
AcDbEntity
  8
Cut
100
AcDbLine
 10
34.12601396055345
 20
16.39516819194944
 30
0.0
 11
34.12601396055345
 21
16.30331002387941
 31
0.0
  0
LINE
  5
1471
330
1F
100
AcDbEntity
  8
Cut
100
AcDbLine
 10
34.12601396055345
 20
16.30331002387941
 30
0.0
 11
33.98166541072911
 21
16.30331002387941
 31
0.0
  0
LINE
  5
1472
330
1F
100
AcDbEntity
  8
Cut
100
AcDbLine
 10
33.98166541072911
 20
16.30331002387941
 30
0.0
 11
33.83731686090477
 21
16.30331002387941
 31
0.0
  0
LINE
  5
1473
330
1F
100
AcDbEntity
  8
Cut
100
AcDbLine
 10
33.83731686090477
 20
16.30331002387941
 30
0.0
 11
33.83731686090477
 21
16.39516819194944
 31
0.0
  0
LINE
  5
1474
330
1F
100
AcDbEntity
  8
Cut
100
AcDbLine
 10
33.83731686090477
 20
16.39516819194944
 30
0.0
 11
33.83731686090477
 21
16.48702636001948
 31
0.0
  0
LINE
  5
1475
330
1F
100
AcDbEntity
  8
Cut
100
AcDbLine
 10
33.83731686090477
 20
16.48702636001948
 30
0.0
 11
33.98166541072911
 21
16.48702636001948
 31
0.0
  0
LINE
  5
1476
330
1F
100
AcDbEntity
  8
Cut
100
AcDbLine
 10
33.98166541072911
 20
16.48702636001948
 30
0.0
 11
34.12601396055345
 21
16.48702636001948
 31
0.0
  0
LINE
  5
1477
330
1F
100
AcDbEntity
  8
Cut
100
AcDbLine
 10
34.12601396055345
 20
16.48702636001948
 30
0.0
 11
34.12601396055345
 21
16.39516819194944
 31
0.0
  0
LINE
  5
1478
330
1F
100
AcDbEntity
  8
Cut
100
AcDbLine
 10
39.20445839528251
 20
16.17824838245573
 30
0.0
 11
39.41441992229973
 21
15.87026437440639
 31
0.0
  0
LINE
  5
1479
330
1F
100
AcDbEntity
  8
Cut
100
AcDbLine
 10
39.41441992229973
 20
15.87026437440639
 30
0.0
 11
39.42181411115151
 21
16.17864536721293
 31
0.0
  0
LINE
  5
147A
330
1F
100
AcDbEntity
  8
Cut
100
AcDbLine
 10
39.42181411115151
 20
16.17864536721293
 30
0.0
 11
39.42920832624847
 21
16.48702636001948
 31
0.0
  0
LINE
  5
147B
330
1F
100
AcDbEntity
  8
Cut
100
AcDbLine
 10
39.42920832624847
 20
16.48702636001948
 30
0.0
 11
39.58584655413371
 21
16.48702636001948
 31
0.0
  0
LINE
  5
147C
330
1F
100
AcDbEntity
  8
Cut
100
AcDbLine
 10
39.58584655413371
 20
16.48702636001948
 30
0.0
 11
39.74248480826414
 21
16.48702636001948
 31
0.0
  0
LINE
  5
147D
330
1F
100
AcDbEntity
  8
Cut
100
AcDbLine
 10
39.74248480826414
 20
16.48702636001948
 30
0.0
 11
39.74248480826414
 21
15.93462500982619
 31
0.0
  0
LINE
  5
147E
330
1F
100
AcDbEntity
  8
Cut
100
AcDbLine
 10
39.74248480826414
 20
15.93462500982619
 30
0.0
 11
39.74248480826414
 21
15.3822236333877
 31
0.0
  0
LINE
  5
147F
330
1F
100
AcDbEntity
  8
Cut
100
AcDbLine
 10
39.74248480826414
 20
15.3822236333877
 30
0.0
 11
39.58067310210801
 21
15.39003729912527
 31
0.0
  0
LINE
  5
1480
330
1F
100
AcDbEntity
  8
Cut
100
AcDbLine
 10
39.58067310210801
 20
15.39003729912527
 30
0.0
 11
39.41886142219706
 21
15.39785093861764
 31
0.0
  0
LINE
  5
1481
330
1F
100
AcDbEntity
  8
Cut
100
AcDbLine
 10
39.41886142219706
 20
15.39785093861764
 30
0.0
 11
39.21980172754716
 21
15.69191964148315
 31
0.0
  0
LINE
  5
1482
330
1F
100
AcDbEntity
  8
Cut
100
AcDbLine
 10
39.21980172754716
 20
15.69191964148315
 30
0.0
 11
39.14207643729333
 21
15.8047296866179
 31
0.0
  0
LINE
  5
1483
330
1F
100
AcDbEntity
  8
Cut
100
AcDbLine
 10
39.14207643729333
 20
15.8047296866179
 30
0.0
 11
39.07343368902039
 21
15.89995511267747
 31
0.0
  0
LINE
  5
1484
330
1F
100
AcDbEntity
  8
Cut
100
AcDbLine
 10
39.07343368902039
 20
15.89995511267747
 30
0.0
 11
39.01304547320138
 21
15.98074539505751
 31
0.0
  0
LINE
  5
1485
330
1F
100
AcDbEntity
  8
Cut
100
AcDbLine
 10
39.01304547320138
 20
15.98074539505751
 30
0.0
 11
39.00105816598457
 21
15.98717803885112
 31
0.0
  0
LINE
  5
1486
330
1F
100
AcDbEntity
  8
Cut
100
AcDbLine
 10
39.00105816598457
 20
15.98717803885112
 30
0.0
 11
38.9931323283012
 21
15.98030723159581
 31
0.0
  0
LINE
  5
1487
330
1F
100
AcDbEntity
  8
Cut
100
AcDbLine
 10
38.9931323283012
 20
15.98030723159581
 30
0.0
 11
38.98715640331923
 21
15.89935871695998
 31
0.0
  0
LINE
  5
1488
330
1F
100
AcDbEntity
  8
Cut
100
AcDbLine
 10
38.98715640331923
 20
15.89935871695998
 30
0.0
 11
38.98278875738903
 21
15.80219537225122
 31
0.0
  0
LINE
  5
1489
330
1F
100
AcDbEntity
  8
Cut
100
AcDbLine
 10
38.98278875738903
 20
15.80219537225122
 30
0.0
 11
38.98137427282671
 21
15.68654803826632
 31
0.0
  0
LINE
  5
148A
330
1F
100
AcDbEntity
  8
Cut
100
AcDbLine
 10
38.98137427282671
 20
15.68654803826632
 30
0.0
 11
38.98137427282671
 21
15.38472834317906
 31
0.0
  0
LINE
  5
148B
330
1F
100
AcDbEntity
  8
Cut
100
AcDbLine
 10
38.98137427282671
 20
15.38472834317906
 30
0.0
 11
38.83702572300237
 21
15.38472834317906
 31
0.0
  0
LINE
  5
148C
330
1F
100
AcDbEntity
  8
Cut
100
AcDbLine
 10
38.83702572300237
 20
15.38472834317906
 30
0.0
 11
38.69267717317803
 21
15.38472834317906
 31
0.0
  0
LINE
  5
148D
330
1F
100
AcDbEntity
  8
Cut
100
AcDbLine
 10
38.69267717317803
 20
15.38472834317906
 30
0.0
 11
38.69267717317803
 21
15.93587735159927
 31
0.0
  0
LINE
  5
148E
330
1F
100
AcDbEntity
  8
Cut
100
AcDbLine
 10
38.69267717317803
 20
15.93587735159927
 30
0.0
 11
38.69267717317803
 21
16.48702636001948
 31
0.0
  0
LINE
  5
148F
330
1F
100
AcDbEntity
  8
Cut
100
AcDbLine
 10
38.69267717317803
 20
16.48702636001948
 30
0.0
 11
38.84358702072166
 21
16.48662937526227
 31
0.0
  0
LINE
  5
1490
330
1F
100
AcDbEntity
  8
Cut
100
AcDbLine
 10
38.84358702072166
 20
16.48662937526227
 30
0.0
 11
38.99449686826529
 21
16.48623239050506
 31
0.0
  0
LINE
  5
1491
330
1F
100
AcDbEntity
  8
Cut
100
AcDbLine
 10
38.99449686826529
 20
16.48623239050506
 30
0.0
 11
39.20445839528251
 21
16.17824838245573
 31
0.0
  0
LINE
  5
1492
330
1F
100
AcDbEntity
  8
Cut
100
AcDbLine
 10
35.09910488182594
 20
16.12161254655718
 30
0.0
 11
35.14483295394403
 21
16.06572275645452
 31
0.0
  0
LINE
  5
1493
330
1F
100
AcDbEntity
  8
Cut
100
AcDbLine
 10
35.14483295394403
 20
16.06572275645452
 30
0.0
 11
35.16621039677882
 21
16.0131535866372
 31
0.0
  0
LINE
  5
1494
330
1F
100
AcDbEntity
  8
Cut
100
AcDbLine
 10
35.16621039677882
 20
16.0131535866372
 30
0.0
 11
35.1743467996286
 21
15.93205035660114
 31
0.0
  0
LINE
  5
1495
330
1F
100
AcDbEntity
  8
Cut
100
AcDbLine
 10
35.1743467996286
 20
15.93205035660114
 30
0.0
 11
35.17582159563956
 21
15.71481208796132
 31
0.0
  0
LINE
  5
1496
330
1F
100
AcDbEntity
  8
Cut
100
AcDbLine
 10
35.17582159563956
 20
15.71481208796132
 30
0.0
 11
35.17582159563956
 21
15.38472834317906
 31
0.0
  0
LINE
  5
1497
330
1F
100
AcDbEntity
  8
Cut
100
AcDbLine
 10
35.17582159563956
 20
15.38472834317906
 30
0.0
 11
35.03147304581522
 21
15.38472834317906
 31
0.0
  0
LINE
  5
1498
330
1F
100
AcDbEntity
  8
Cut
100
AcDbLine
 10
35.03147304581522
 20
15.38472834317906
 30
0.0
 11
34.88712449599088
 21
15.38472834317906
 31
0.0
  0
LINE
  5
1499
330
1F
100
AcDbEntity
  8
Cut
100
AcDbLine
 10
34.88712449599088
 20
15.38472834317906
 30
0.0
 11
34.88712449599088
 21
15.64193121377516
 31
0.0
  0
LINE
  5
149A
330
1F
100
AcDbEntity
  8
Cut
100
AcDbLine
 10
34.88712449599088
 20
15.64193121377516
 30
0.0
 11
34.88298822766345
 21
15.81722481203298
 31
0.0
  0
LINE
  5
149B
330
1F
100
AcDbEntity
  8
Cut
100
AcDbLine
 10
34.88298822766345
 20
15.81722481203298
 30
0.0
 11
34.86548405009832
 21
15.90345291424643
 31
0.0
  0
LINE
  5
149C
330
1F
100
AcDbEntity
  8
Cut
100
AcDbLine
 10
34.86548405009832
 20
15.90345291424643
 30
0.0
 11
34.82933993433284
 21
15.94612229308412
 31
0.0
  0
LINE
  5
149D
330
1F
100
AcDbEntity
  8
Cut
100
AcDbLine
 10
34.82933993433284
 20
15.94612229308412
 30
0.0
 11
34.76902113704369
 21
15.96212254247643
 31
0.0
  0
LINE
  5
149E
330
1F
100
AcDbEntity
  8
Cut
100
AcDbLine
 10
34.76902113704369
 20
15.96212254247643
 30
0.0
 11
34.70870233975455
 21
15.94612229308412
 31
0.0
  0
LINE
  5
149F
330
1F
100
AcDbEntity
  8
Cut
100
AcDbLine
 10
34.70870233975455
 20
15.94612229308412
 30
0.0
 11
34.67255822398907
 21
15.90345291424643
 31
0.0
  0
LINE
  5
14A0
330
1F
100
AcDbEntity
  8
Cut
100
AcDbLine
 10
34.67255822398907
 20
15.90345291424643
 30
0.0
 11
34.65505404642393
 21
15.81722481203298
 31
0.0
  0
LINE
  5
14A1
330
1F
100
AcDbEntity
  8
Cut
100
AcDbLine
 10
34.65505404642393
 20
15.81722481203298
 30
0.0
 11
34.65091777809651
 21
15.64193121377516
 31
0.0
  0
LINE
  5
14A2
330
1F
100
AcDbEntity
  8
Cut
100
AcDbLine
 10
34.65091777809651
 20
15.64193121377516
 30
0.0
 11
34.65091777809651
 21
15.38472834317906
 31
0.0
  0
LINE
  5
14A3
330
1F
100
AcDbEntity
  8
Cut
100
AcDbLine
 10
34.65091777809651
 20
15.38472834317906
 30
0.0
 11
34.49344663283359
 21
15.38472834317906
 31
0.0
  0
LINE
  5
14A4
330
1F
100
AcDbEntity
  8
Cut
100
AcDbLine
 10
34.49344663283359
 20
15.38472834317906
 30
0.0
 11
34.33597548757067
 21
15.38472834317906
 31
0.0
  0
LINE
  5
14A5
330
1F
100
AcDbEntity
  8
Cut
100
AcDbLine
 10
34.33597548757067
 20
15.38472834317906
 30
0.0
 11
34.33597548757067
 21
15.77840620633635
 31
0.0
  0
LINE
  5
14A6
330
1F
100
AcDbEntity
  8
Cut
100
AcDbLine
 10
34.33597548757067
 20
15.77840620633635
 30
0.0
 11
34.33597548757067
 21
16.17208406949365
 31
0.0
  0
LINE
  5
14A7
330
1F
100
AcDbEntity
  8
Cut
100
AcDbLine
 10
34.33597548757067
 20
16.17208406949365
 30
0.0
 11
34.48032403739501
 21
16.17208406949365
 31
0.0
  0
LINE
  5
14A8
330
1F
100
AcDbEntity
  8
Cut
100
AcDbLine
 10
34.48032403739501
 20
16.17208406949365
 30
0.0
 11
34.56223496318032
 21
16.17046358642813
 31
0.0
  0
LINE
  5
14A9
330
1F
100
AcDbEntity
  8
Cut
100
AcDbLine
 10
34.56223496318032
 20
16.17046358642813
 30
0.0
 11
34.59979167385438
 21
16.16317280362841
 31
0.0
  0
LINE
  5
14AA
330
1F
100
AcDbEntity
  8
Cut
100
AcDbLine
 10
34.59979167385438
 20
16.16317280362841
 30
0.0
 11
34.61792148427964
 21
16.14748744403625
 31
0.0
  0
LINE
  5
14AB
330
1F
100
AcDbEntity
  8
Cut
100
AcDbLine
 10
34.61792148427964
 20
16.14748744403625
 30
0.0
 11
34.62467258721935
 21
16.12038463905681
 31
0.0
  0
LINE
  5
14AC
330
1F
100
AcDbEntity
  8
Cut
100
AcDbLine
 10
34.62467258721935
 20
16.12038463905681
 30
0.0
 11
34.62792069204231
 21
16.09271968833396
 31
0.0
  0
LINE
  5
14AD
330
1F
100
AcDbEntity
  8
Cut
100
AcDbLine
 10
34.62792069204231
 20
16.09271968833396
 30
0.0
 11
34.63846076069858
 21
16.08550478038107
 31
0.0
  0
LINE
  5
14AE
330
1F
100
AcDbEntity
  8
Cut
100
AcDbLine
 10
34.63846076069858
 20
16.08550478038107
 30
0.0
 11
34.65947069212551
 21
16.09329498291799
 31
0.0
  0
LINE
  5
14AF
330
1F
100
AcDbEntity
  8
Cut
100
AcDbLine
 10
34.65947069212551
 20
16.09329498291799
 30
0.0
 11
34.72019319294072
 21
16.13350723449538
 31
0.0
  0
LINE
  5
14B0
330
1F
100
AcDbEntity
  8
Cut
100
AcDbLine
 10
34.72019319294072
 20
16.13350723449538
 30
0.0
 11
34.8221179664236
 21
16.1844823501544
 31
0.0
  0
LINE
  5
14B1
330
1F
100
AcDbEntity
  8
Cut
100
AcDbLine
 10
34.8221179664236
 20
16.1844823501544
 30
0.0
 11
34.92330580119183
 21
16.19976933399423
 31
0.0
  0
LINE
  5
14B2
330
1F
100
AcDbEntity
  8
Cut
100
AcDbLine
 10
34.92330580119183
 20
16.19976933399423
 30
0.0
 11
35.01742745950388
 21
16.17800375103156
 31
0.0
  0
LINE
  5
14B3
330
1F
100
AcDbEntity
  8
Cut
100
AcDbLine
 10
35.01742745950388
 20
16.17800375103156
 30
0.0
 11
35.09910488182594
 21
16.12161254655718
 31
0.0
  0
LINE
  5
14B4
330
1F
100
AcDbEntity
  8
Cut
100
AcDbLine
 10
34.12601396055345
 20
15.77840620633635
 30
0.0
 11
34.12601396055345
 21
15.38472834317906
 31
0.0
  0
LINE
  5
14B5
330
1F
100
AcDbEntity
  8
Cut
100
AcDbLine
 10
34.12601396055345
 20
15.38472834317906
 30
0.0
 11
33.98166541072911
 21
15.38472834317906
 31
0.0
  0
LINE
  5
14B6
330
1F
100
AcDbEntity
  8
Cut
100
AcDbLine
 10
33.98166541072911
 20
15.38472834317906
 30
0.0
 11
33.83731686090477
 21
15.38472834317906
 31
0.0
  0
LINE
  5
14B7
330
1F
100
AcDbEntity
  8
Cut
100
AcDbLine
 10
33.83731686090477
 20
15.38472834317906
 30
0.0
 11
33.83731686090477
 21
15.77840620633635
 31
0.0
  0
LINE
  5
14B8
330
1F
100
AcDbEntity
  8
Cut
100
AcDbLine
 10
33.83731686090477
 20
15.77840620633635
 30
0.0
 11
33.83731686090477
 21
16.17208406949365
 31
0.0
  0
LINE
  5
14B9
330
1F
100
AcDbEntity
  8
Cut
100
AcDbLine
 10
33.83731686090477
 20
16.17208406949365
 30
0.0
 11
33.98166541072911
 21
16.17208406949365
 31
0.0
  0
LINE
  5
14BA
330
1F
100
AcDbEntity
  8
Cut
100
AcDbLine
 10
33.98166541072911
 20
16.17208406949365
 30
0.0
 11
34.12601396055345
 21
16.17208406949365
 31
0.0
  0
LINE
  5
14BB
330
1F
100
AcDbEntity
  8
Cut
100
AcDbLine
 10
34.12601396055345
 20
16.17208406949365
 30
0.0
 11
34.12601396055345
 21
15.77840620633635
 31
0.0
  0
LINE
  5
14BC
330
1F
100
AcDbEntity
  8
Cut
100
AcDbLine
 10
35.67448022230546
 20
15.91488119889755
 30
0.0
 11
35.67853492057965
 21
15.74374494385543
 31
0.0
  0
LINE
  5
14BD
330
1F
100
AcDbEntity
  8
Cut
100
AcDbLine
 10
35.67853492057965
 20
15.74374494385543
 30
0.0
 11
35.69516064536094
 21
15.65580085232686
 31
0.0
  0
LINE
  5
14BE
330
1F
100
AcDbEntity
  8
Cut
100
AcDbLine
 10
35.69516064536094
 20
15.65580085232686
 30
0.0
 11
35.72861273940777
 21
15.61154206472965
 31
0.0
  0
LINE
  5
14BF
330
1F
100
AcDbEntity
  8
Cut
100
AcDbLine
 10
35.72861273940777
 20
15.61154206472965
 30
0.0
 11
35.78283535625034
 21
15.59468987019629
 31
0.0
  0
LINE
  5
14C0
330
1F
100
AcDbEntity
  8
Cut
100
AcDbLine
 10
35.78283535625034
 20
15.59468987019629
 30
0.0
 11
35.84474138394816
 21
15.61324193949757
 31
0.0
  0
LINE
  5
14C1
330
1F
100
AcDbEntity
  8
Cut
100
AcDbLine
 10
35.84474138394816
 20
15.61324193949757
 30
0.0
 11
35.88443930851994
 21
15.66242571589846
 31
0.0
  0
LINE
  5
14C2
330
1F
100
AcDbEntity
  8
Cut
100
AcDbLine
 10
35.88443930851994
 20
15.66242571589846
 30
0.0
 11
35.90522292766593
 21
15.75654348992225
 31
0.0
  0
LINE
  5
14C3
330
1F
100
AcDbEntity
  8
Cut
100
AcDbLine
 10
35.90522292766593
 20
15.75654348992225
 30
0.0
 11
35.91068694019984
 21
15.92462942389986
 31
0.0
  0
LINE
  5
14C4
330
1F
100
AcDbEntity
  8
Cut
100
AcDbLine
 10
35.91068694019984
 20
15.92462942389986
 30
0.0
 11
35.91068694019984
 21
16.17208406949365
 31
0.0
  0
LINE
  5
14C5
330
1F
100
AcDbEntity
  8
Cut
100
AcDbLine
 10
35.91068694019984
 20
16.17208406949365
 30
0.0
 11
36.06815808546276
 21
16.17208406949365
 31
0.0
  0
LINE
  5
14C6
330
1F
100
AcDbEntity
  8
Cut
100
AcDbLine
 10
36.06815808546276
 20
16.17208406949365
 30
0.0
 11
36.22562923072567
 21
16.17208406949365
 31
0.0
  0
LINE
  5
14C7
330
1F
100
AcDbEntity
  8
Cut
100
AcDbLine
 10
36.22562923072567
 20
16.17208406949365
 30
0.0
 11
36.22562923072567
 21
15.77840620633635
 31
0.0
  0
LINE
  5
14C8
330
1F
100
AcDbEntity
  8
Cut
100
AcDbLine
 10
36.22562923072567
 20
15.77840620633635
 30
0.0
 11
36.22562923072567
 21
15.38472834317906
 31
0.0
  0
LINE
  5
14C9
330
1F
100
AcDbEntity
  8
Cut
100
AcDbLine
 10
36.22562923072567
 20
15.38472834317906
 30
0.0
 11
36.08128068090133
 21
15.38472834317906
 31
0.0
  0
LINE
  5
14CA
330
1F
100
AcDbEntity
  8
Cut
100
AcDbLine
 10
36.08128068090133
 20
15.38472834317906
 30
0.0
 11
35.99106351963609
 21
15.38625772918705
 31
0.0
  0
LINE
  5
14CB
330
1F
100
AcDbEntity
  8
Cut
100
AcDbLine
 10
35.99106351963609
 20
15.38625772918705
 30
0.0
 11
35.957432643349
 21
15.3943780962252
 31
0.0
  0
LINE
  5
14CC
330
1F
100
AcDbEntity
  8
Cut
100
AcDbLine
 10
35.957432643349
 20
15.3943780962252
 30
0.0
 11
35.94182166262779
 21
15.4133288562211
 31
0.0
  0
LINE
  5
14CD
330
1F
100
AcDbEntity
  8
Cut
100
AcDbLine
 10
35.94182166262779
 20
15.4133288562211
 30
0.0
 11
35.93693213107699
 21
15.45267436036978
 31
0.0
  0
LINE
  5
14CE
330
1F
100
AcDbEntity
  8
Cut
100
AcDbLine
 10
35.93693213107699
 20
15.45267436036978
 30
0.0
 11
35.93693213107699
 21
15.5206203513153
 31
0.0
  0
LINE
  5
14CF
330
1F
100
AcDbEntity
  8
Cut
100
AcDbLine
 10
35.93693213107699
 20
15.5206203513153
 30
0.0
 11
35.85618289617548
 21
15.45267436036978
 31
0.0
  0
LINE
  5
14D0
330
1F
100
AcDbEntity
  8
Cut
100
AcDbLine
 10
35.85618289617548
 20
15.45267436036978
 30
0.0
 11
35.81174629741008
 21
15.42060250091118
 31
0.0
  0
LINE
  5
14D1
330
1F
100
AcDbEntity
  8
Cut
100
AcDbLine
 10
35.81174629741008
 20
15.42060250091118
 30
0.0
 11
35.76804516762862
 21
15.39985210817683
 31
0.0
  0
LINE
  5
14D2
330
1F
100
AcDbEntity
  8
Cut
100
AcDbLine
 10
35.76804516762862
 20
15.39985210817683
 30
0.0
 11
35.71980041791213
 21
15.38846235146592
 31
0.0
  0
LINE
  5
14D3
330
1F
100
AcDbEntity
  8
Cut
100
AcDbLine
 10
35.71980041791213
 20
15.38846235146592
 30
0.0
 11
35.6614904800231
 21
15.38472834317906
 31
0.0
  0
LINE
  5
14D4
330
1F
100
AcDbEntity
  8
Cut
100
AcDbLine
 10
35.6614904800231
 20
15.38472834317906
 30
0.0
 11
35.51441815179916
 21
15.405598440229
 31
0.0
  0
LINE
  5
14D5
330
1F
100
AcDbEntity
  8
Cut
100
AcDbLine
 10
35.51441815179916
 20
15.405598440229
 30
0.0
 11
35.43383449780689
 21
15.46912235271845
 31
0.0
  0
LINE
  5
14D6
330
1F
100
AcDbEntity
  8
Cut
100
AcDbLine
 10
35.43383449780689
 20
15.46912235271845
 30
0.0
 11
35.39501156165377
 21
15.59789052371414
 31
0.0
  0
LINE
  5
14D7
330
1F
100
AcDbEntity
  8
Cut
100
AcDbLine
 10
35.39501156165377
 20
15.59789052371414
 30
0.0
 11
35.38578312265678
 21
15.86896103822743
 31
0.0
  0
LINE
  5
14D8
330
1F
100
AcDbEntity
  8
Cut
100
AcDbLine
 10
35.38578312265678
 20
15.86896103822743
 30
0.0
 11
35.38578312265678
 21
16.17208406949365
 31
0.0
  0
LINE
  5
14D9
330
1F
100
AcDbEntity
  8
Cut
100
AcDbLine
 10
35.38578312265678
 20
16.17208406949365
 30
0.0
 11
35.53013167248113
 21
16.17208406949365
 31
0.0
  0
LINE
  5
14DA
330
1F
100
AcDbEntity
  8
Cut
100
AcDbLine
 10
35.53013167248113
 20
16.17208406949365
 30
0.0
 11
35.67448022230546
 21
16.17208406949365
 31
0.0
  0
LINE
  5
14DB
330
1F
100
AcDbEntity
  8
Cut
100
AcDbLine
 10
35.67448022230546
 20
16.17208406949365
 30
0.0
 11
35.67448022230546
 21
15.91488119889755
 31
0.0
  0
LINE
  5
14DC
330
1F
100
AcDbEntity
  8
Cut
100
AcDbLine
 10
36.75017262306241
 20
16.09421868241091
 30
0.0
 11
36.79169999490946
 21
16.00859332725114
 31
0.0
  0
LINE
  5
14DD
330
1F
100
AcDbEntity
  8
Cut
100
AcDbLine
 10
36.79169999490946
 20
16.00859332725114
 30
0.0
 11
36.82719393856135
 21
15.98337532065454
 31
0.0
  0
LINE
  5
14DE
330
1F
100
AcDbEntity
  8
Cut
100
AcDbLine
 10
36.82719393856135
 20
15.98337532065454
 30
0.0
 11
36.86415506711883
 21
15.99728574423287
 31
0.0
  0
LINE
  5
14DF
330
1F
100
AcDbEntity
  8
Cut
100
AcDbLine
 10
36.86415506711883
 20
15.99728574423287
 30
0.0
 11
36.91046021849392
 21
16.06586227588922
 31
0.0
  0
LINE
  5
14E0
330
1F
100
AcDbEntity
  8
Cut
100
AcDbLine
 10
36.91046021849392
 20
16.06586227588922
 30
0.0
 11
36.97016020667257
 21
16.17208406949365
 31
0.0
  0
LINE
  5
14E1
330
1F
100
AcDbEntity
  8
Cut
100
AcDbLine
 10
36.97016020667257
 20
16.17208406949365
 30
0.0
 11
37.13621345061674
 21
16.17208406949365
 31
0.0
  0
LINE
  5
14E2
330
1F
100
AcDbEntity
  8
Cut
100
AcDbLine
 10
37.13621345061674
 20
16.17208406949365
 30
0.0
 11
37.3022667208061
 21
16.17208406949365
 31
0.0
  0
LINE
  5
14E3
330
1F
100
AcDbEntity
  8
Cut
100
AcDbLine
 10
37.3022667208061
 20
16.17208406949365
 30
0.0
 11
37.16879409934568
 21
15.98857583147204
 31
0.0
  0
LINE
  5
14E4
330
1F
100
AcDbEntity
  8
Cut
100
AcDbLine
 10
37.16879409934568
 20
15.98857583147204
 30
0.0
 11
37.03532147788526
 21
15.80506761969563
 31
0.0
  0
LINE
  5
14E5
330
1F
100
AcDbEntity
  8
Cut
100
AcDbLine
 10
37.03532147788526
 20
15.80506761969563
 30
0.0
 11
37.18343203961513
 21
15.59489796831475
 31
0.0
  0
LINE
  5
14E6
330
1F
100
AcDbEntity
  8
Cut
100
AcDbLine
 10
37.18343203961513
 20
15.59489796831475
 30
0.0
 11
37.33154262759018
 21
15.38472834317906
 31
0.0
  0
LINE
  5
14E7
330
1F
100
AcDbEntity
  8
Cut
100
AcDbLine
 10
37.33154262759018
 20
15.38472834317906
 30
0.0
 11
37.16130755366721
 21
15.38472834317906
 31
0.0
  0
LINE
  5
14E8
330
1F
100
AcDbEntity
  8
Cut
100
AcDbLine
 10
37.16130755366721
 20
15.38472834317906
 30
0.0
 11
36.99107247974425
 21
15.38472834317906
 31
0.0
  0
LINE
  5
14E9
330
1F
100
AcDbEntity
  8
Cut
100
AcDbLine
 10
36.99107247974425
 20
15.38472834317906
 30
0.0
 11
36.91300043802855
 21
15.51995403840932
 31
0.0
  0
LINE
  5
14EA
330
1F
100
AcDbEntity
  8
Cut
100
AcDbLine
 10
36.91300043802855
 20
15.51995403840932
 30
0.0
 11
36.83492839631285
 21
15.65517975988476
 31
0.0
  0
LINE
  5
14EB
330
1F
100
AcDbEntity
  8
Cut
100
AcDbLine
 10
36.83492839631285
 20
15.65517975988476
 30
0.0
 11
36.73777841040625
 21
15.51995403840932
 31
0.0
  0
LINE
  5
14EC
330
1F
100
AcDbEntity
  8
Cut
100
AcDbLine
 10
36.73777841040625
 20
15.51995403840932
 30
0.0
 11
36.67315674031799
 21
15.43465013434741
 31
0.0
  0
LINE
  5
14ED
330
1F
100
AcDbEntity
  8
Cut
100
AcDbLine
 10
36.67315674031799
 20
15.43465013434741
 30
0.0
 11
36.63490272116751
 21
15.4020354456059
 31
0.0
  0
LINE
  5
14EE
330
1F
100
AcDbEntity
  8
Cut
100
AcDbLine
 10
36.63490272116751
 20
15.4020354456059
 30
0.0
 11
36.58936933587535
 21
15.38817709248628
 31
0.0
  0
LINE
  5
14EF
330
1F
100
AcDbEntity
  8
Cut
100
AcDbLine
 10
36.58936933587535
 20
15.38817709248628
 30
0.0
 11
36.49874180480555
 21
15.38472834317906
 31
0.0
  0
LINE
  5
14F0
330
1F
100
AcDbEntity
  8
Cut
100
AcDbLine
 10
36.49874180480555
 20
15.38472834317906
 30
0.0
 11
36.44434124556882
 21
15.38583617893118
 31
0.0
  0
LINE
  5
14F1
330
1F
100
AcDbEntity
  8
Cut
100
AcDbLine
 10
36.44434124556882
 20
15.38583617893118
 30
0.0
 11
36.39853438538771
 21
15.38925054703834
 31
0.0
  0
LINE
  5
14F2
330
1F
100
AcDbEntity
  8
Cut
100
AcDbLine
 10
36.39853438538771
 20
15.38925054703834
 30
0.0
 11
36.3621118868826
 21
15.39400331489948
 31
0.0
  0
LINE
  5
14F3
330
1F
100
AcDbEntity
  8
Cut
100
AcDbLine
 10
36.3621118868826
 20
15.39400331489948
 30
0.0
 11
36.35685518511143
 21
15.40012306352745
 31
0.0
  0
LINE
  5
14F4
330
1F
100
AcDbEntity
  8
Cut
100
AcDbLine
 10
36.35685518511143
 20
15.40012306352745
 30
0.0
 11
36.3599269222517
 21
15.41077372941807
 31
0.0
  0
LINE
  5
14F5
330
1F
100
AcDbEntity
  8
Cut
100
AcDbLine
 10
36.3599269222517
 20
15.41077372941807
 30
0.0
 11
36.39609754565996
 21
15.46776167079742
 31
0.0
  0
LINE
  5
14F6
330
1F
100
AcDbEntity
  8
Cut
100
AcDbLine
 10
36.39609754565996
 20
15.46776167079742
 30
0.0
 11
36.43924542681773
 21
15.53358615798358
 31
0.0
  0
LINE
  5
14F7
330
1F
100
AcDbEntity
  8
Cut
100
AcDbLine
 10
36.43924542681773
 20
15.53358615798358
 30
0.0
 11
36.4904461986279
 21
15.6087640375205
 31
0.0
  0
LINE
  5
14F8
330
1F
100
AcDbEntity
  8
Cut
100
AcDbLine
 10
36.4904461986279
 20
15.6087640375205
 30
0.0
 11
36.54579242458232
 21
15.69280882855007
 31
0.0
  0
LINE
  5
14F9
330
1F
100
AcDbEntity
  8
Cut
100
AcDbLine
 10
36.54579242458232
 20
15.69280882855007
 30
0.0
 11
36.58355271920201
 21
15.76017464330606
 31
0.0
  0
LINE
  5
14FA
330
1F
100
AcDbEntity
  8
Cut
100
AcDbLine
 10
36.58355271920201
 20
15.76017464330606
 30
0.0
 11
36.60588693047022
 21
15.81174148303859
 31
0.0
  0
LINE
  5
14FB
330
1F
100
AcDbEntity
  8
Cut
100
AcDbLine
 10
36.60588693047022
 20
15.81174148303859
 30
0.0
 11
36.60364795323649
 21
15.83613733278577
 31
0.0
  0
LINE
  5
14FC
330
1F
100
AcDbEntity
  8
Cut
100
AcDbLine
 10
36.60364795323649
 20
15.83613733278577
 30
0.0
 11
36.59043531054802
 21
15.85647974402794
 31
0.0
  0
LINE
  5
14FD
330
1F
100
AcDbEntity
  8
Cut
100
AcDbLine
 10
36.59043531054802
 20
15.85647974402794
 30
0.0
 11
36.55984976873917
 21
15.89948773831833
 31
0.0
  0
LINE
  5
14FE
330
1F
100
AcDbEntity
  8
Cut
100
AcDbLine
 10
36.55984976873917
 20
15.89948773831833
 30
0.0
 11
36.52299280734428
 21
15.9502167265773
 31
0.0
  0
LINE
  5
14FF
330
1F
100
AcDbEntity
  8
Cut
100
AcDbLine
 10
36.52299280734428
 20
15.9502167265773
 30
0.0
 11
36.4831795351586
 21
16.00387520304197
 31
0.0
  0
LINE
  5
1500
330
1F
100
AcDbEntity
  8
Cut
100
AcDbLine
 10
36.4831795351586
 20
16.00387520304197
 30
0.0
 11
36.4448315319796
 21
16.05632655819744
 31
0.0
  0
LINE
  5
1501
330
1F
100
AcDbEntity
  8
Cut
100
AcDbLine
 10
36.4448315319796
 20
16.05632655819744
 30
0.0
 11
36.41249863785253
 21
16.10331941230909
 31
0.0
  0
LINE
  5
1502
330
1F
100
AcDbEntity
  8
Cut
100
AcDbLine
 10
36.41249863785253
 20
16.10331941230909
 30
0.0
 11
36.38639435740519
 21
16.14348174553344
 31
0.0
  0
LINE
  5
1503
330
1F
100
AcDbEntity
  8
Cut
100
AcDbLine
 10
36.38639435740519
 20
16.14348174553344
 30
0.0
 11
36.38310037598859
 21
16.1547850505856
 31
0.0
  0
LINE
  5
1504
330
1F
100
AcDbEntity
  8
Cut
100
AcDbLine
 10
36.38310037598859
 20
16.1547850505856
 30
0.0
 11
36.38906908354306
 21
16.16167155246504
 31
0.0
  0
LINE
  5
1505
330
1F
100
AcDbEntity
  8
Cut
100
AcDbLine
 10
36.38906908354306
 20
16.16167155246504
 30
0.0
 11
36.43227696120717
 21
16.16700247563601
 31
0.0
  0
LINE
  5
1506
330
1F
100
AcDbEntity
  8
Cut
100
AcDbLine
 10
36.43227696120717
 20
16.16700247563601
 30
0.0
 11
36.4863230791411
 21
16.17083933882592
 31
0.0
  0
LINE
  5
1507
330
1F
100
AcDbEntity
  8
Cut
100
AcDbLine
 10
36.4863230791411
 20
16.17083933882592
 30
0.0
 11
36.55051005013286
 21
16.17208406949365
 31
0.0
  0
LINE
  5
1508
330
1F
100
AcDbEntity
  8
Cut
100
AcDbLine
 10
36.55051005013286
 20
16.17208406949365
 30
0.0
 11
36.65533793540462
 21
16.17022987300336
 31
0.0
  0
LINE
  5
1509
330
1F
100
AcDbEntity
  8
Cut
100
AcDbLine
 10
36.65533793540462
 20
16.17022987300336
 30
0.0
 11
36.69903938012836
 21
16.16120690760576
 31
0.0
  0
LINE
  5
150A
330
1F
100
AcDbEntity
  8
Cut
100
AcDbLine
 10
36.69903938012836
 20
16.16120690760576
 30
0.0
 11
36.72583781962921
 21
16.13969729398971
 31
0.0
  0
LINE
  5
150B
330
1F
100
AcDbEntity
  8
Cut
100
AcDbLine
 10
36.72583781962921
 20
16.13969729398971
 30
0.0
 11
36.75017262306241
 21
16.09421868241091
 31
0.0
  0
LINE
  5
150C
330
1F
100
AcDbEntity
  8
Cut
100
AcDbLine
 10
35.89100304704198
 20
14.86685285652696
 30
0.0
 11
35.84022091227148
 21
14.86372162153897
 31
0.0
  0
LINE
  5
150D
330
1F
100
AcDbEntity
  8
Cut
100
AcDbLine
 10
35.84022091227148
 20
14.86372162153897
 30
0.0
 11
35.77946098581408
 21
14.86270871464226
 31
0.0
  0
LINE
  5
150E
330
1F
100
AcDbEntity
  8
Cut
100
AcDbLine
 10
35.77946098581408
 20
14.86270871464226
 30
0.0
 11
35.71870105935667
 21
14.86372162153897
 31
0.0
  0
LINE
  5
150F
330
1F
100
AcDbEntity
  8
Cut
100
AcDbLine
 10
35.71870105935667
 20
14.86372162153897
 30
0.0
 11
35.66791892458617
 21
14.86685285652696
 31
0.0
  0
LINE
  5
1510
330
1F
100
AcDbEntity
  8
Cut
100
AcDbLine
 10
35.66791892458617
 20
14.86685285652696
 30
0.0
 11
35.65408784021987
 21
14.87050965146225
 31
0.0
  0
LINE
  5
1511
330
1F
100
AcDbEntity
  8
Cut
100
AcDbLine
 10
35.65408784021987
 20
14.87050965146225
 30
0.0
 11
35.65467329169277
 21
14.87394813889983
 31
0.0
  0
LINE
  5
1512
330
1F
100
AcDbEntity
  8
Cut
100
AcDbLine
 10
35.65467329169277
 20
14.87394813889983
 30
0.0
 11
35.69948706009627
 21
14.87629923558899
 31
0.0
  0
LINE
  5
1513
330
1F
100
AcDbEntity
  8
Cut
100
AcDbLine
 10
35.69948706009627
 20
14.87629923558899
 30
0.0
 11
35.77946098581408
 21
14.87689927938801
 31
0.0
  0
LINE
  5
1514
330
1F
100
AcDbEntity
  8
Cut
100
AcDbLine
 10
35.77946098581408
 20
14.87689927938801
 30
0.0
 11
35.85943491153188
 21
14.87629923558899
 31
0.0
  0
LINE
  5
1515
330
1F
100
AcDbEntity
  8
Cut
100
AcDbLine
 10
35.85943491153188
 20
14.87629923558899
 30
0.0
 11
35.90424867993539
 21
14.87394813889983
 31
0.0
  0
LINE
  5
1516
330
1F
100
AcDbEntity
  8
Cut
100
AcDbLine
 10
35.90424867993539
 20
14.87394813889983
 30
0.0
 11
35.90483413140828
 21
14.87050965146225
 31
0.0
  0
LINE
  5
1517
330
1F
100
AcDbEntity
  8
Cut
100
AcDbLine
 10
35.90483413140828
 20
14.87050965146225
 30
0.0
 11
35.89100304704198
 21
14.86685285652696
 31
0.0
  0
LINE
  5
1518
330
1F
100
AcDbEntity
  8
Cut
100
AcDbLine
 10
38.6906795729648
 20
14.8210510354225
 30
0.0
 11
38.46781856087664
 21
14.72439201830165
 31
0.0
  0
LINE
  5
1519
330
1F
100
AcDbEntity
  8
Cut
100
AcDbLine
 10
38.46781856087664
 20
14.72439201830165
 30
0.0
 11
38.24380730080792
 21
14.66572055290829
 31
0.0
  0
LINE
  5
151A
330
1F
100
AcDbEntity
  8
Cut
100
AcDbLine
 10
38.24380730080792
 20
14.66572055290829
 30
0.0
 11
38.04604267510184
 21
14.6492723505981
 31
0.0
  0
LINE
  5
151B
330
1F
100
AcDbEntity
  8
Cut
100
AcDbLine
 10
38.04604267510184
 20
14.6492723505981
 30
0.0
 11
37.90675816110245
 21
14.68311520929189
 31
0.0
  0
LINE
  5
151C
330
1F
100
AcDbEntity
  8
Cut
100
AcDbLine
 10
37.90675816110245
 20
14.68311520929189
 30
0.0
 11
37.87860001075264
 21
14.7016108251876
 31
0.0
  0
LINE
  5
151D
330
1F
100
AcDbEntity
  8
Cut
100
AcDbLine
 10
37.87860001075264
 20
14.7016108251876
 30
0.0
 11
37.84681028709597
 21
14.73109175940281
 31
0.0
  0
LINE
  5
151E
330
1F
100
AcDbEntity
  8
Cut
100
AcDbLine
 10
37.84681028709597
 20
14.73109175940281
 30
0.0
 11
37.81656483047051
 21
14.7658161153226
 31
0.0
  0
LINE
  5
151F
330
1F
100
AcDbEntity
  8
Cut
100
AcDbLine
 10
37.81656483047051
 20
14.7658161153226
 30
0.0
 11
37.79280017756393
 21
14.80083166163517
 31
0.0
  0
LINE
  5
1520
330
1F
100
AcDbEntity
  8
Cut
100
AcDbLine
 10
37.79280017756393
 20
14.80083166163517
 30
0.0
 11
37.74301848322447
 21
14.88606971651316
 31
0.0
  0
LINE
  5
1521
330
1F
100
AcDbEntity
  8
Cut
100
AcDbLine
 10
37.74301848322447
 20
14.88606971651316
 30
0.0
 11
38.27689952079744
 21
14.88484771418073
 31
0.0
  0
LINE
  5
1522
330
1F
100
AcDbEntity
  8
Cut
100
AcDbLine
 10
38.27689952079744
 20
14.88484771418073
 30
0.0
 11
38.81078053212521
 21
14.88362568560311
 31
0.0
  0
LINE
  5
1523
330
1F
100
AcDbEntity
  8
Cut
100
AcDbLine
 10
38.81078053212521
 20
14.88362568560311
 30
0.0
 11
38.6906795729648
 21
14.8210510354225
 31
0.0
  0
VIEWPORT
  5
ADB
330
A7A
100
AcDbEntity
 67
     1
  8
0
100
AcDbViewport
 10
0.0
 20
0.0
 30
0.0
 40
22.06491880920163
 41
8.925
 68
     1
 69
     1
 12
6.395515899864682
 22
3.486715155615698
 13
0.0
 23
0.0
 14
0.5
 24
0.5
 15
0.0
 25
0.0
 16
0.0
 26
0.0
 36
1.0
 17
0.0
 27
0.0
 37
0.0
 42
50.0
 43
0.0
 44
0.0
 45
8.925
 50
0.0
 51
0.0
 72
   100
 90
   557168
  1

281
     0
 71
     1
 74
     0
110
0.0
120
0.0
130
0.0
111
1.0
121
0.0
131
0.0
112
0.0
122
1.0
132
0.0
 79
     0
146
0.0
170
     0
 61
     5
348
A85
292
     1
282
     1
141
0.0
142
0.0
 63
   256
361
ADF
  0
VIEWPORT
  5
ADC
102
{ACAD_XDICTIONARY
360
ADD
102
}
330
A7A
100
AcDbEntity
 67
     1
  8
0
100
AcDbViewport
 10
5.25
 20
3.5
 30
0.0
 40
8.4
 41
5.600000000000001
 68
     2
 69
     2
 12
6.0
 22
4.5
 13
0.0
 23
0.0
 14
0.5
 24
0.5
 15
0.0
 25
0.0
 16
0.0
 26
0.0
 36
1.0
 17
0.0
 27
0.0
 37
0.0
 42
50.0
 43
0.0
 44
0.0
 45
9.18
 50
0.0
 51
0.0
 72
   100
 90
   557152
  1

281
     0
 71
     1
 74
     0
110
0.0
120
0.0
130
0.0
111
1.0
121
0.0
131
0.0
112
0.0
122
1.0
132
0.0
 79
     0
146
0.0
170
     0
 61
     5
348
A85
292
     1
282
     1
141
0.0
142
0.0
 63
   256
  0
ENDSEC
  0
SECTION
  2
OBJECTS
  0
DICTIONARY
  5
C
330
0
100
AcDbDictionary
281
     1
  3
ACAD_DETAILVIEWSTYLE
350
ACB
  3
ACAD_FIELDLIST
350
B99
  3
ACAD_GROUP
350
D
  3
ACAD_IMAGE_VARS
350
AC5
  3
ACAD_LAYOUT
350
1A
  3
ACAD_MATERIAL
350
ABB
  3
ACAD_MLEADERSTYLE
350
AC1
  3
ACAD_MLINESTYLE
350
17
  3
ACAD_PLOTSETTINGS
350
19
  3
ACAD_PLOTSTYLENAME
350
E
  3
ACAD_SCALELIST
350
A99
  3
ACAD_SECTIONVIEWSTYLE
350
ACC
  3
ACAD_TABLESTYLE
350
ABF
  3
ACAD_VISUALSTYLE
350
A80
  3
ACDB_RECOMPOSE_DATA
350
1526
  3
AcDbVariableDictionary
350
AC6
  3
APPDATA
350
AC3
  3
DimOffsetDictionary
350
AED
  0
SUN
  5
AC4
330
A7F
100
AcDbSun
 90
        1
290
     0
 63
     7
421
 16777215
 40
1.0
291
     1
 91
  2455826
 92
 54000000
292
     0
 70
     2
 71
   256
280
     1
  0
DICTIONARY
  5
AEF
330
2
100
AcDbDictionary
280
     1
281
     1
  3
ACAD_LAYERSTATES
360
AF0
  3
ACLYDICTIONARY
360
BA6
  0
DICTIONARY
  5
BA7
330
1F
100
AcDbDictionary
280
     1
281
     1
  3
DIM_BOUNDING_BOXES_V1
360
BA8
  0
SUN
  5
ADF
330
ADB
100
AcDbSun
 90
        1
290
     0
 63
     7
421
 16777215
 40
1.0
291
     1
 91
  2455826
 92
 54000000
292
     0
 70
     2
 71
   256
280
     1
  0
DICTIONARY
  5
ADD
330
ADC
100
AcDbDictionary
280
     1
281
     1
  3
ASDK_XREC_ANNOTATION_SCALE_INFO
360
ADE
  0
DICTIONARY
  5
ACB
102
{ACAD_REACTORS
330
C
102
}
330
C
100
AcDbDictionary
281
     1
  0
FIELDLIST
  5
B99
102
{ACAD_REACTORS
330
C
102
}
330
C
100
AcDbIdSet
 90
        0
100
AcDbFieldList
  0
DICTIONARY
  5
D
102
{ACAD_REACTORS
330
C
102
}
330
C
100
AcDbDictionary
281
     1
  0
RASTERVARIABLES
  5
AC5
102
{ACAD_REACTORS
330
C
102
}
330
C
100
AcDbRasterVariables
 90
        0
 70
     1
 71
     1
 72
     5
  0
DICTIONARY
  5
1A
102
{ACAD_REACTORS
330
C
102
}
330
C
100
AcDbDictionary
281
     1
  3
Layout1
350
A7B
  3
Model
350
22
  0
DICTIONARY
  5
ABB
102
{ACAD_REACTORS
330
C
102
}
330
C
100
AcDbDictionary
281
     1
  3
ByBlock
350
ABD
  3
ByLayer
350
ABC
  3
Global
350
ABE
  0
DICTIONARY
  5
AC1
102
{ACAD_REACTORS
330
C
102
}
330
C
100
AcDbDictionary
281
     1
  3
Standard
350
AC2
  0
DICTIONARY
  5
17
102
{ACAD_REACTORS
330
C
102
}
330
C
100
AcDbDictionary
281
     1
  3
Standard
350
18
  0
DICTIONARY
  5
19
102
{ACAD_REACTORS
330
C
102
}
330
C
100
AcDbDictionary
281
     1
  0
ACDBDICTIONARYWDFLT
  5
E
102
{ACAD_REACTORS
330
C
102
}
330
C
100
AcDbDictionary
281
     1
  3
Normal
350
F
100
AcDbDictionaryWithDefault
340
F
  0
DICTIONARY
  5
A99
102
{ACAD_REACTORS
330
C
102
}
330
C
100
AcDbDictionary
281
     1
  3
A0
350
A9A
  3
A1
350
A9B
  3
A2
350
A9C
  3
A3
350
A9D
  3
A4
350
A9E
  3
A5
350
A9F
  3
A6
350
AA0
  3
A7
350
AA1
  3
A8
350
AA2
  3
A9
350
AA3
  3
B0
350
AA4
  3
B1
350
AA5
  3
B2
350
AA6
  3
B3
350
AA7
  3
B4
350
AA8
  3
B5
350
AA9
  3
B6
350
AAA
  3
B7
350
AAB
  3
B8
350
AAC
  3
B9
350
AAD
  3
C0
350
AAE
  3
C1
350
AAF
  3
C2
350
AB0
  3
C3
350
AB1
  3
C4
350
AB2
  3
C5
350
AB3
  3
C6
350
AB4
  3
C7
350
AB5
  3
C8
350
AB6
  3
C9
350
AB7
  3
D0
350
AB8
  3
D1
350
AB9
  3
D2
350
ABA
  0
DICTIONARY
  5
ACC
102
{ACAD_REACTORS
330
C
102
}
330
C
100
AcDbDictionary
281
     1
  0
DICTIONARY
  5
ABF
102
{ACAD_REACTORS
330
C
102
}
330
C
100
AcDbDictionary
281
     1
  3
Standard
350
AC0
  0
DICTIONARY
  5
A80
102
{ACAD_REACTORS
330
C
102
}
330
C
100
AcDbDictionary
281
     1
  3
2dWireframe
350
A85
  3
Basic
350
A88
  3
Brighten
350
A8C
  3
ColorChange
350
A90
  3
Conceptual
350
A8A
  3
Dim
350
A8B
  3
EdgeColorOff
350
A93
  3
Facepattern
350
A8F
  3
Flat
350
A81
  3
FlatWithEdges
350
A82
  3
Gouraud
350
A83
  3
GouraudWithEdges
350
A84
  3
Hidden
350
A87
  3
JitterOff
350
A91
  3
Linepattern
350
A8E
  3
OverhangOff
350
A92
  3
Realistic
350
A89
  3
Shaded
350
A98
  3
Shaded with edges
350
A97
  3
Shades of Gray
350
A94
  3
Sketchy
350
A95
  3
Thicken
350
A8D
  3
Wireframe
350
A86
  3
X-Ray
350
A96
  0
XRECORD
  5
1526
102
{ACAD_REACTORS
330
C
102
}
330
C
100
AcDbXrecord
280
     1
 90
        1
330
AC0
  0
DICTIONARY
  5
AC6
102
{ACAD_REACTORS
330
C
102
}
330
C
100
AcDbDictionary
281
     1
  3
CANNOSCALE
350
AC7
  3
CMLEADERSTYLE
350
AC9
  3
CTABLESTYLE
350
AC8
  3
MSLTSCALE
350
ACA
  0
DICTIONARY
  5
AC3
102
{ACAD_REACTORS
330
C
102
}
330
C
100
AcDbDictionary
281
     1
  0
DICTIONARY
  5
AED
102
{ACAD_REACTORS
330
C
102
}
330
C
100
AcDbDictionary
281
     1
  3
DIMRAILSENABLED
350
B9C
  0
DICTIONARY
  5
AF0
102
{ACAD_REACTORS
330
AEF
102
}
330
AEF
100
AcDbDictionary
281
     1
  0
DICTIONARY
  5
BA6
102
{ACAD_REACTORS
330
AEF
102
}
330
AEF
100
AcDbDictionary
281
     1
1001
ACAD
1000
<All
  0
DICTIONARY
  5
BA8
102
{ACAD_REACTORS
330
BA7
102
}
330
BA7
100
AcDbDictionary
281
     1
  0
XRECORD
  5
ADE
102
{ACAD_REACTORS
330
ADD
102
}
330
ADD
100
AcDbXrecord
280
     1
 90
        1
340
A9A
  0
LAYOUT
  5
A7B
102
{ACAD_REACTORS
330
1A
102
}
330
1A
100
AcDbPlotSettings
  1

  2
none_device
  4
ANSI_A_(11.00_x_8.50_Inches)
  6

 40
6.35
 41
19.05
 42
6.35
 43
19.05
 44
279.4
 45
215.9
 46
0.0
 47
0.0
 48
0.0
 49
0.0
140
0.0
141
0.0
142
1.0
143
1.0
 70
   688
 72
     0
 73
     0
 74
     5
  7

 75
    16
 76
     0
 77
     2
 78
   300
147
1.0
148
0.0
149
0.0
100
AcDbLayout
  1
Layout1
 70
     1
 71
     1
 10
0.0
 20
0.0
 11
10.75
 21
7.75
 12
0.0
 22
0.0
 32
0.0
 14
1.05
 24
0.6999999999999997
 34
0.0
 15
9.45
 25
6.300000000000001
 35
0.0
146
0.0
 13
0.0
 23
0.0
 33
0.0
 16
1.0
 26
0.0
 36
0.0
 17
0.0
 27
1.0
 37
0.0
 76
     0
330
A7A
331
ADB
  0
LAYOUT
  5
22
102
{ACAD_REACTORS
330
1A
102
}
330
1A
100
AcDbPlotSettings
  1

  2
Brother HL-5240 series
  4
Letter
  6

 40
7.143749713897705
 41
5.027085304260254
 42
7.14373779296875
 43
5.027069091796875
 44
215.8999938964844
 45
279.3999938964844
 46
2.032
 47
0.0
 48
-122.4111319195276
 49
-32.29145645132661
140
-113.1986327553601
141
-25.53766020093568
142
1.0
143
0.8687621802655836
 70
 11956
 72
     0
 73
     1
 74
     4
  7
monochrome.ctb
 75
     0
 76
     0
 77
     2
 78
   300
147
1.151062998269902
148
3109.242750756
149
820.2029938636958
100
AcDbLayout
  1
Model
 70
     1
 71
     0
 10
0.0
 20
0.0
 11
12.0
 21
9.0
 12
0.0
 22
0.0
 32
0.0
 14
31.84210007843636
 24
14.59595569149941
 34
0.0
 15
41.84210007843636
 25
21.33186602507772
 35
0.0
146
0.0
 13
0.0
 23
0.0
 33
0.0
 16
1.0
 26
0.0
 36
0.0
 17
0.0
 27
1.0
 37
0.0
 76
     0
330
1F
331
A7F
  0
MATERIAL
  5
ABD
102
{ACAD_REACTORS
330
ABB
102
}
330
ABB
100
AcDbMaterial
  1
ByBlock
 72
     1
 94
      127
  0
MATERIAL
  5
ABC
102
{ACAD_REACTORS
330
ABB
102
}
330
ABB
100
AcDbMaterial
  1
ByLayer
 72
     1
 94
      127
  0
MATERIAL
  5
ABE
102
{ACAD_REACTORS
330
ABB
102
}
330
ABB
100
AcDbMaterial
  1
Global
 72
     1
 94
      127
  0
MLEADERSTYLE
  5
AC2
102
{ACAD_REACTORS
330
AC1
102
}
330
AC1
100
AcDbMLeaderStyle
179
     2
170
     2
171
     1
172
     0
 90
        2
 40
0.0
 41
0.0
173
     1
 91
-1056964608
340
14
 92
       -2
290
     1
 42
0.09
291
     1
 43
0.36
  3
Standard
341
0
 44
0.18
300

342
11
174
     1
178
     1
175
     1
176
     0
 93
-1056964608
 45
0.18
292
     0
297
     0
 46
0.18
343
0
 94
-1056964608
 47
1.0
 49
1.0
140
1.0
293
     1
141
0.0
294
     1
177
     0
142
1.0
295
     0
296
     0
143
0.125
271
     0
272
     9
273
     9
298
     0
  0
MLINESTYLE
  5
18
102
{ACAD_REACTORS
330
17
102
}
330
17
100
AcDbMlineStyle
  2
STANDARD
 70
     0
  3

 62
   256
 51
90.0
 52
90.0
 71
     2
 49
0.5
 62
   256
  6
BYLAYER
 49
-0.5
 62
   256
  6
BYLAYER
  0
ACDBPLACEHOLDER
  5
F
102
{ACAD_REACTORS
330
E
102
}
330
E
  0
SCALE
  5
A9A
102
{ACAD_REACTORS
330
A99
102
}
330
A99
100
AcDbScale
 70
     0
300
1:1
140
1.0
141
1.0
290
     1
  0
SCALE
  5
A9B
102
{ACAD_REACTORS
330
A99
102
}
330
A99
100
AcDbScale
 70
     0
300
1:2
140
1.0
141
2.0
290
     0
  0
SCALE
  5
A9C
102
{ACAD_REACTORS
330
A99
102
}
330
A99
100
AcDbScale
 70
     0
300
1:4
140
1.0
141
4.0
290
     0
  0
SCALE
  5
A9D
102
{ACAD_REACTORS
330
A99
102
}
330
A99
100
AcDbScale
 70
     0
300
1:5
140
1.0
141
5.0
290
     0
  0
SCALE
  5
A9E
102
{ACAD_REACTORS
330
A99
102
}
330
A99
100
AcDbScale
 70
     0
300
1:8
140
1.0
141
8.0
290
     0
  0
SCALE
  5
A9F
102
{ACAD_REACTORS
330
A99
102
}
330
A99
100
AcDbScale
 70
     0
300
1:10
140
1.0
141
10.0
290
     0
  0
SCALE
  5
AA0
102
{ACAD_REACTORS
330
A99
102
}
330
A99
100
AcDbScale
 70
     0
300
1:16
140
1.0
141
16.0
290
     0
  0
SCALE
  5
AA1
102
{ACAD_REACTORS
330
A99
102
}
330
A99
100
AcDbScale
 70
     0
300
1:20
140
1.0
141
20.0
290
     0
  0
SCALE
  5
AA2
102
{ACAD_REACTORS
330
A99
102
}
330
A99
100
AcDbScale
 70
     0
300
1:30
140
1.0
141
30.0
290
     0
  0
SCALE
  5
AA3
102
{ACAD_REACTORS
330
A99
102
}
330
A99
100
AcDbScale
 70
     0
300
1:40
140
1.0
141
40.0
290
     0
  0
SCALE
  5
AA4
102
{ACAD_REACTORS
330
A99
102
}
330
A99
100
AcDbScale
 70
     0
300
1:50
140
1.0
141
50.0
290
     0
  0
SCALE
  5
AA5
102
{ACAD_REACTORS
330
A99
102
}
330
A99
100
AcDbScale
 70
     0
300
1:100
140
1.0
141
100.0
290
     0
  0
SCALE
  5
AA6
102
{ACAD_REACTORS
330
A99
102
}
330
A99
100
AcDbScale
 70
     0
300
2:1
140
2.0
141
1.0
290
     0
  0
SCALE
  5
AA7
102
{ACAD_REACTORS
330
A99
102
}
330
A99
100
AcDbScale
 70
     0
300
4:1
140
4.0
141
1.0
290
     0
  0
SCALE
  5
AA8
102
{ACAD_REACTORS
330
A99
102
}
330
A99
100
AcDbScale
 70
     0
300
8:1
140
8.0
141
1.0
290
     0
  0
SCALE
  5
AA9
102
{ACAD_REACTORS
330
A99
102
}
330
A99
100
AcDbScale
 70
     0
300
10:1
140
10.0
141
1.0
290
     0
  0
SCALE
  5
AAA
102
{ACAD_REACTORS
330
A99
102
}
330
A99
100
AcDbScale
 70
     0
300
100:1
140
100.0
141
1.0
290
     0
  0
SCALE
  5
AAB
102
{ACAD_REACTORS
330
A99
102
}
330
A99
100
AcDbScale
 70
     0
300
1/128" = 1'-0"
140
0.0078125
141
12.0
290
     0
  0
SCALE
  5
AAC
102
{ACAD_REACTORS
330
A99
102
}
330
A99
100
AcDbScale
 70
     0
300
1/64" = 1'-0"
140
0.015625
141
12.0
290
     0
  0
SCALE
  5
AAD
102
{ACAD_REACTORS
330
A99
102
}
330
A99
100
AcDbScale
 70
     0
300
1/32" = 1'-0"
140
0.03125
141
12.0
290
     0
  0
SCALE
  5
AAE
102
{ACAD_REACTORS
330
A99
102
}
330
A99
100
AcDbScale
 70
     0
300
1/16" = 1'-0"
140
0.0625
141
12.0
290
     0
  0
SCALE
  5
AAF
102
{ACAD_REACTORS
330
A99
102
}
330
A99
100
AcDbScale
 70
     0
300
3/32" = 1'-0"
140
0.09375
141
12.0
290
     0
  0
SCALE
  5
AB0
102
{ACAD_REACTORS
330
A99
102
}
330
A99
100
AcDbScale
 70
     0
300
1/8" = 1'-0"
140
0.125
141
12.0
290
     0
  0
SCALE
  5
AB1
102
{ACAD_REACTORS
330
A99
102
}
330
A99
100
AcDbScale
 70
     0
300
3/16" = 1'-0"
140
0.1875
141
12.0
290
     0
  0
SCALE
  5
AB2
102
{ACAD_REACTORS
330
A99
102
}
330
A99
100
AcDbScale
 70
     0
300
1/4" = 1'-0"
140
0.25
141
12.0
290
     0
  0
SCALE
  5
AB3
102
{ACAD_REACTORS
330
A99
102
}
330
A99
100
AcDbScale
 70
     0
300
3/8" = 1'-0"
140
0.375
141
12.0
290
     0
  0
SCALE
  5
AB4
102
{ACAD_REACTORS
330
A99
102
}
330
A99
100
AcDbScale
 70
     0
300
1/2" = 1'-0"
140
0.5
141
12.0
290
     0
  0
SCALE
  5
AB5
102
{ACAD_REACTORS
330
A99
102
}
330
A99
100
AcDbScale
 70
     0
300
3/4" = 1'-0"
140
0.75
141
12.0
290
     0
  0
SCALE
  5
AB6
102
{ACAD_REACTORS
330
A99
102
}
330
A99
100
AcDbScale
 70
     0
300
1" = 1'-0"
140
1.0
141
12.0
290
     0
  0
SCALE
  5
AB7
102
{ACAD_REACTORS
330
A99
102
}
330
A99
100
AcDbScale
 70
     0
300
1-1/2" = 1'-0"
140
1.5
141
12.0
290
     0
  0
SCALE
  5
AB8
102
{ACAD_REACTORS
330
A99
102
}
330
A99
100
AcDbScale
 70
     0
300
3" = 1'-0"
140
3.0
141
12.0
290
     0
  0
SCALE
  5
AB9
102
{ACAD_REACTORS
330
A99
102
}
330
A99
100
AcDbScale
 70
     0
300
6" = 1'-0"
140
6.0
141
12.0
290
     0
  0
SCALE
  5
ABA
102
{ACAD_REACTORS
330
A99
102
}
330
A99
100
AcDbScale
 70
     0
300
1'-0" = 1'-0"
140
12.0
141
12.0
290
     0
  0
TABLESTYLE
  5
AC0
102
{ACAD_REACTORS
330
ABF
102
}
102
{ACAD_XDICTIONARY
360
1524
102
}
330
ABF
100
AcDbTableStyle
  3
Standard
 70
     0
 71
     0
 40
0.06
 41
0.06
280
     0
281
     0
  7
Standard
140
0.18
170
     2
 62
     0
 63
   257
283
     0
 90
        4
 91
        0
  1

274
    -2
284
     1
 64
     0
275
    -2
285
     1
 65
     0
276
    -2
286
     1
 66
     0
277
    -2
287
     1
 67
     0
278
    -2
288
     1
 68
     0
279
    -2
289
     1
 69
     0
  7
Standard
140
0.25
170
     5
 62
     0
 63
   257
283
     0
 90
        4
 91
        0
  1

274
    -2
284
     1
 64
     0
275
    -2
285
     1
 65
     0
276
    -2
286
     1
 66
     0
277
    -2
287
     1
 67
     0
278
    -2
288
     1
 68
     0
279
    -2
289
     1
 69
     0
  7
Standard
140
0.18
170
     5
 62
     0
 63
   257
283
     0
 90
        4
 91
        0
  1

274
    -2
284
     1
 64
     0
275
    -2
285
     1
 65
     0
276
    -2
286
     1
 66
     0
277
    -2
287
     1
 67
     0
278
    -2
288
     1
 68
     0
279
    -2
289
     1
 69
     0
  0
VISUALSTYLE
  5
A85
102
{ACAD_REACTORS
330
A80
102
}
330
A80
100
AcDbVisualStyle
  2
2dWireframe
 70
     4
177
     3
291
     0
 70
    58
 90
        0
176
     1
 90
        2
176
     1
 90
        0
176
     1
 90
        0
176
     1
 40
0.6
176
     1
 40
30.0
176
     1
 62
     7
420
 16777215
176
     1
 90
        1
176
     1
 90
        4
176
     1
 62
     7
176
     1
 62
   257
176
     1
 90
        1
176
     1
 90
        1
176
     1
 40
1.0
176
     1
 90
        0
176
     1
 62
   257
176
     1
 40
1.0
176
     1
 90
        1
176
     1
 90
        6
176
     1
 90
        2
176
     1
 62
     7
176
     1
 90
        5
176
     1
 90
        0
176
     1
 90
        0
176
     1
290
     0
176
     1
 90
        1
176
     1
 40
0.0
176
     1
 90
        0
176
     1
290
     1
176
     1
290
     1
176
     1
290
     0
176
     1
290
     0
176
     1
290
     0
176
     1
290
     0
176
     1
290
     0
176
     1
290
     0
176
     1
290
     0
176
     1
 90
       50
176
     1
 40
0.0
176
     1
 40
1.0
176
     1
 90
        0
176
     1
 62
    18
420
        0
176
     1
 90
       50
176
     1
 90
        3
176
     1
 62
     5
420
      255
176
     1
290
     0
176
     1
 90
       50
176
     1
 90
       50
176
     1
 90
       50
176
     1
290
     0
176
     1
 90
       50
176
     1
 62
   256
176
     0
 40
1.0
176
     0
 90
        2
176
     1
  1
strokes_ogs.tif
176
     1
290
     0
176
     1
 40
1.0
176
     1
 40
1.0
176
     1
  0
VISUALSTYLE
  5
A88
102
{ACAD_REACTORS
330
A80
102
}
330
A80
100
AcDbVisualStyle
  2
Basic
 70
     7
177
     3
291
     1
 70
    58
 90
        1
176
     1
 90
        0
176
     1
 90
        1
176
     1
 90
        0
176
     1
 40
0.6
176
     1
 40
30.0
176
     1
 62
     7
420
 16777215
176
     1
 90
        0
176
     1
 90
        4
176
     1
 62
     7
176
     1
 62
   257
176
     1
 90
        1
176
     1
 90
        1
176
     1
 40
1.0
176
     1
 90
        8
176
     1
 62
     7
176
     1
 40
1.0
176
     1
 90
        1
176
     1
 90
        6
176
     1
 90
        2
176
     1
 62
     7
176
     1
 90
        5
176
     1
 90
        0
176
     1
 90
        0
176
     1
290
     0
176
     1
 90
        1
176
     1
 40
0.0
176
     1
 90
        0
176
     1
290
     0
176
     1
290
     1
176
     1
290
     1
176
     1
290
     0
176
     1
290
     0
176
     1
290
     0
176
     1
290
     0
176
     1
290
     0
176
     1
290
     0
176
     1
 90
       50
176
     1
 40
0.0
176
     1
 40
1.0
176
     1
 90
        0
176
     1
 62
    18
420
        0
176
     1
 90
       50
176
     1
 90
        3
176
     1
 62
     5
420
      255
176
     1
290
     0
176
     1
 90
       50
176
     1
 90
       50
176
     1
 90
       50
176
     1
290
     0
176
     1
 90
       50
176
     1
 62
   256
176
     0
 40
1.0
176
     0
 90
        2
176
     1
  1
strokes_ogs.tif
176
     1
290
     0
176
     1
 40
1.0
176
     1
 40
1.0
176
     1
  0
VISUALSTYLE
  5
A8C
102
{ACAD_REACTORS
330
A80
102
}
330
A80
100
AcDbVisualStyle
  2
Brighten
 70
    12
177
     3
291
     1
 70
    58
 90
        2
176
     1
 90
        2
176
     1
 90
        0
176
     1
 90
        0
176
     1
 40
0.6
176
     1
 40
30.0
176
     1
 62
     7
420
 16777215
176
     1
 90
        1
176
     1
 90
        4
176
     1
 62
     7
176
     1
 62
   257
176
     1
 90
        1
176
     1
 90
        1
176
     1
 40
1.0
176
     1
 90
        8
176
     1
 62
     7
176
     1
 40
1.0
176
     1
 90
        1
176
     1
 90
        6
176
     1
 90
        2
176
     1
 62
     7
176
     1
 90
        5
176
     1
 90
        0
176
     1
 90
        0
176
     1
290
     0
176
     1
 90
        1
176
     1
 40
50.0
176
     1
 90
        0
176
     1
290
     0
176
     1
290
     1
176
     1
290
     1
176
     1
290
     0
176
     1
290
     0
176
     1
290
     0
176
     1
290
     0
176
     1
290
     0
176
     1
290
     0
176
     1
 90
       50
176
     1
 40
0.0
176
     1
 40
1.0
176
     1
 90
        0
176
     1
 62
    18
420
        0
176
     1
 90
       50
176
     1
 90
        3
176
     1
 62
     5
420
      255
176
     1
290
     0
176
     1
 90
       50
176
     1
 90
       50
176
     1
 90
       50
176
     1
290
     0
176
     1
 90
       50
176
     1
 62
   256
176
     0
 40
1.0
176
     0
 90
        2
176
     1
  1
strokes_ogs.tif
176
     1
290
     0
176
     1
 40
1.0
176
     1
 40
1.0
176
     1
  0
VISUALSTYLE
  5
A90
102
{ACAD_REACTORS
330
A80
102
}
330
A80
100
AcDbVisualStyle
  2
ColorChange
 70
    16
177
     3
291
     1
 70
    58
 90
        2
176
     1
 90
        2
176
     1
 90
        3
176
     1
 90
        0
176
     1
 40
0.6
176
     1
 40
30.0
176
     1
 62
     8
420
  8421504
176
     1
 90
        1
176
     1
 90
        4
176
     1
 62
     7
176
     1
 62
   257
176
     1
 90
        1
176
     1
 90
        1
176
     1
 40
1.0
176
     1
 90
        8
176
     1
 62
     8
420
  8421504
176
     1
 40
1.0
176
     1
 90
        1
176
     1
 90
        6
176
     1
 90
        2
176
     1
 62
     7
176
     1
 90
        5
176
     1
 90
        0
176
     1
 90
        0
176
     1
290
     0
176
     1
 90
        1
176
     1
 40
0.0
176
     1
 90
        0
176
     1
290
     0
176
     1
290
     1
176
     1
290
     1
176
     1
290
     0
176
     1
290
     0
176
     1
290
     0
176
     1
290
     0
176
     1
290
     0
176
     1
290
     0
176
     1
 90
       50
176
     1
 40
0.0
176
     1
 40
1.0
176
     1
 90
        0
176
     1
 62
    18
420
        0
176
     1
 90
       50
176
     1
 90
        3
176
     1
 62
     5
420
      255
176
     1
290
     0
176
     1
 90
       50
176
     1
 90
       50
176
     1
 90
       50
176
     1
290
     0
176
     1
 90
       50
176
     1
 62
   256
176
     0
 40
1.0
176
     0
 90
        2
176
     1
  1
strokes_ogs.tif
176
     1
290
     0
176
     1
 40
1.0
176
     1
 40
1.0
176
     1
  0
VISUALSTYLE
  5
A8A
102
{ACAD_REACTORS
330
A80
102
}
330
A80
100
AcDbVisualStyle
  2
Conceptual
 70
     9
177
     3
291
     0
 70
    58
 90
        3
176
     1
 90
        2
176
     1
 90
        0
176
     1
 90
        0
176
     1
 40
0.6
176
     1
 40
30.0
176
     1
 62
     7
420
 16777215
176
     1
 90
        2
176
     1
 90
        2
176
     1
 62
     7
176
     1
 62
   257
176
     1
 90
        1
176
     1
 90
        1
176
     1
 40
179.0
176
     1
 90
        8
176
     1
 62
     7
176
     1
 40
1.0
176
     1
 90
        1
176
     1
 90
        6
176
     1
 90
        2
176
     1
 62
     7
176
     1
 90
        3
176
     1
 90
        0
176
     1
 90
        0
176
     1
290
     0
176
     1
 90
        1
176
     1
 40
0.0
176
     1
 90
        0
176
     1
290
     0
176
     1
290
     1
176
     1
290
     1
176
     1
290
     0
176
     1
290
     0
176
     1
290
     0
176
     1
290
     0
176
     1
290
     0
176
     1
290
     0
176
     1
 90
       50
176
     1
 40
0.0
176
     1
 40
1.0
176
     1
 90
        0
176
     1
 62
    18
420
        0
176
     1
 90
       50
176
     1
 90
        3
176
     1
 62
     5
420
      255
176
     1
290
     0
176
     1
 90
       50
176
     1
 90
       50
176
     1
 90
       50
176
     1
290
     0
176
     1
 90
       50
176
     1
 62
   256
176
     0
 40
1.0
176
     0
 90
        2
176
     1
  1
strokes_ogs.tif
176
     1
290
     0
176
     1
 40
1.0
176
     1
 40
1.0
176
     1
  0
VISUALSTYLE
  5
A8B
102
{ACAD_REACTORS
330
A80
102
}
330
A80
100
AcDbVisualStyle
  2
Dim
 70
    11
177
     3
291
     1
 70
    58
 90
        2
176
     1
 90
        2
176
     1
 90
        0
176
     1
 90
        0
176
     1
 40
0.6
176
     1
 40
30.0
176
     1
 62
     7
420
 16777215
176
     1
 90
        1
176
     1
 90
        4
176
     1
 62
     7
176
     1
 62
   257
176
     1
 90
        1
176
     1
 90
        1
176
     1
 40
1.0
176
     1
 90
        8
176
     1
 62
     7
176
     1
 40
1.0
176
     1
 90
        1
176
     1
 90
        6
176
     1
 90
        2
176
     1
 62
     7
176
     1
 90
        5
176
     1
 90
        0
176
     1
 90
        0
176
     1
290
     0
176
     1
 90
        1
176
     1
 40
-50.0
176
     1
 90
        0
176
     1
290
     0
176
     1
290
     1
176
     1
290
     1
176
     1
290
     0
176
     1
290
     0
176
     1
290
     0
176
     1
290
     0
176
     1
290
     0
176
     1
290
     0
176
     1
 90
       50
176
     1
 40
0.0
176
     1
 40
1.0
176
     1
 90
        0
176
     1
 62
    18
420
        0
176
     1
 90
       50
176
     1
 90
        3
176
     1
 62
     5
420
      255
176
     1
290
     0
176
     1
 90
       50
176
     1
 90
       50
176
     1
 90
       50
176
     1
290
     0
176
     1
 90
       50
176
     1
 62
   256
176
     0
 40
1.0
176
     0
 90
        2
176
     1
  1
strokes_ogs.tif
176
     1
290
     0
176
     1
 40
1.0
176
     1
 40
1.0
176
     1
  0
VISUALSTYLE
  5
A93
102
{ACAD_REACTORS
330
A80
102
}
330
A80
100
AcDbVisualStyle
  2
EdgeColorOff
 70
    22
177
     3
291
     1
 70
    58
 90
        2
176
     0
 90
        2
176
     0
 90
        0
176
     0
 90
        0
176
     0
 40
0.6
176
     0
 40
30.0
176
     0
 62
     7
420
 16777215
176
     0
 90
        1
176
     0
 90
        4
176
     0
 62
     7
176
     0
 62
   257
176
     0
 90
        1
176
     0
 90
        1
176
     0
 40
1.0
176
     0
 90
        8
176
     2
 62
     7
176
     0
 40
1.0
176
     0
 90
        1
176
     0
 90
        6
176
     0
 90
        2
176
     0
 62
     7
176
     0
 90
        5
176
     0
 90
        0
176
     0
 90
        0
176
     0
290
     0
176
     0
 90
        1
176
     0
 40
0.0
176
     0
 90
        0
176
     0
290
     0
176
     0
290
     1
176
     0
290
     1
176
     0
290
     0
176
     0
290
     0
176
     0
290
     0
176
     0
290
     0
176
     0
290
     0
176
     0
290
     0
176
     0
 90
       50
176
     0
 40
0.0
176
     0
 40
1.0
176
     0
 90
        0
176
     0
 62
    18
420
        0
176
     0
 90
       50
176
     0
 90
        3
176
     0
 62
     5
420
      255
176
     0
290
     0
176
     0
 90
       50
176
     0
 90
       50
176
     0
 90
       50
176
     0
290
     0
176
     0
 90
       50
176
     0
 62
   256
176
     0
 40
1.0
176
     0
 90
        2
176
     0
  1
strokes_ogs.tif
176
     0
290
     0
176
     0
 40
1.0
176
     0
 40
1.0
176
     0
  0
VISUALSTYLE
  5
A8F
102
{ACAD_REACTORS
330
A80
102
}
330
A80
100
AcDbVisualStyle
  2
Facepattern
 70
    15
177
     3
291
     1
 70
    58
 90
        2
176
     1
 90
        2
176
     1
 90
        0
176
     1
 90
        0
176
     1
 40
0.6
176
     1
 40
30.0
176
     1
 62
     7
420
 16777215
176
     1
 90
        1
176
     1
 90
        4
176
     1
 62
     7
176
     1
 62
   257
176
     1
 90
        1
176
     1
 90
        1
176
     1
 40
1.0
176
     1
 90
        8
176
     1
 62
     7
176
     1
 40
1.0
176
     1
 90
        1
176
     1
 90
        6
176
     1
 90
        2
176
     1
 62
     7
176
     1
 90
        5
176
     1
 90
        0
176
     1
 90
        0
176
     1
290
     0
176
     1
 90
        1
176
     1
 40
0.0
176
     1
 90
        0
176
     1
290
     0
176
     1
290
     1
176
     1
290
     1
176
     1
290
     0
176
     1
290
     0
176
     1
290
     0
176
     1
290
     0
176
     1
290
     0
176
     1
290
     0
176
     1
 90
       50
176
     1
 40
0.0
176
     1
 40
1.0
176
     1
 90
        0
176
     1
 62
    18
420
        0
176
     1
 90
       50
176
     1
 90
        3
176
     1
 62
     5
420
      255
176
     1
290
     0
176
     1
 90
       50
176
     1
 90
       50
176
     1
 90
       50
176
     1
290
     0
176
     1
 90
       50
176
     1
 62
   256
176
     0
 40
1.0
176
     0
 90
        2
176
     1
  1
strokes_ogs.tif
176
     1
290
     0
176
     1
 40
1.0
176
     1
 40
1.0
176
     1
  0
VISUALSTYLE
  5
A81
102
{ACAD_REACTORS
330
A80
102
}
330
A80
100
AcDbVisualStyle
  2
Flat
 70
     0
177
     3
291
     1
 70
    58
 90
        2
176
     1
 90
        1
176
     1
 90
        1
176
     1
 90
        2
176
     1
 40
0.6
176
     1
 40
30.0
176
     1
 62
     7
420
 16777215
176
     1
 90
        0
176
     1
 90
        0
176
     1
 62
     7
176
     1
 62
   257
176
     1
 90
        1
176
     1
 90
        1
176
     1
 40
1.0
176
     1
 90
        8
176
     1
 62
     7
176
     1
 40
1.0
176
     1
 90
        1
176
     1
 90
        6
176
     1
 90
        2
176
     1
 62
     7
176
     1
 90
        5
176
     1
 90
        0
176
     1
 90
        0
176
     1
290
     0
176
     1
 90
       13
176
     1
 40
0.0
176
     1
 90
        0
176
     1
290
     0
176
     1
290
     1
176
     1
290
     1
176
     1
290
     0
176
     1
290
     0
176
     1
290
     0
176
     1
290
     0
176
     1
290
     0
176
     1
290
     0
176
     1
 90
       50
176
     1
 40
0.0
176
     1
 40
1.0
176
     1
 90
        0
176
     1
 62
    18
420
        0
176
     1
 90
       50
176
     1
 90
        3
176
     1
 62
     5
420
      255
176
     1
290
     0
176
     1
 90
       50
176
     1
 90
       50
176
     1
 90
       50
176
     1
290
     0
176
     1
 90
       50
176
     1
 62
   256
176
     0
 40
1.0
176
     0
 90
        2
176
     1
  1
strokes_ogs.tif
176
     1
290
     0
176
     1
 40
1.0
176
     1
 40
1.0
176
     1
  0
VISUALSTYLE
  5
A82
102
{ACAD_REACTORS
330
A80
102
}
330
A80
100
AcDbVisualStyle
  2
FlatWithEdges
 70
     1
177
     3
291
     1
 70
    58
 90
        2
176
     1
 90
        1
176
     1
 90
        1
176
     1
 90
        2
176
     1
 40
0.6
176
     1
 40
30.0
176
     1
 62
     7
420
 16777215
176
     1
 90
        1
176
     1
 90
        0
176
     1
 62
     7
176
     1
 62
   257
176
     1
 90
        1
176
     1
 90
        1
176
     1
 40
1.0
176
     1
 90
        0
176
     1
 62
   257
176
     1
 40
1.0
176
     1
 90
        1
176
     1
 90
        6
176
     1
 90
        2
176
     1
 62
     7
176
     1
 90
        5
176
     1
 90
        0
176
     1
 90
        0
176
     1
290
     0
176
     1
 90
       13
176
     1
 40
0.0
176
     1
 90
        0
176
     1
290
     0
176
     1
290
     1
176
     1
290
     1
176
     1
290
     0
176
     1
290
     0
176
     1
290
     0
176
     1
290
     0
176
     1
290
     0
176
     1
290
     0
176
     1
 90
       50
176
     1
 40
0.0
176
     1
 40
1.0
176
     1
 90
        0
176
     1
 62
    18
420
        0
176
     1
 90
       50
176
     1
 90
        3
176
     1
 62
     5
420
      255
176
     1
290
     0
176
     1
 90
       50
176
     1
 90
       50
176
     1
 90
       50
176
     1
290
     0
176
     1
 90
       50
176
     1
 62
   256
176
     0
 40
1.0
176
     0
 90
        2
176
     1
  1
strokes_ogs.tif
176
     1
290
     0
176
     1
 40
1.0
176
     1
 40
1.0
176
     1
  0
VISUALSTYLE
  5
A83
102
{ACAD_REACTORS
330
A80
102
}
330
A80
100
AcDbVisualStyle
  2
Gouraud
 70
     2
177
     3
291
     1
 70
    58
 90
        2
176
     1
 90
        2
176
     1
 90
        1
176
     1
 90
        2
176
     1
 40
0.6
176
     1
 40
30.0
176
     1
 62
     7
420
 16777215
176
     1
 90
        0
176
     1
 90
        0
176
     1
 62
     7
176
     1
 62
   257
176
     1
 90
        1
176
     1
 90
        1
176
     1
 40
1.0
176
     1
 90
        0
176
     1
 62
     7
176
     1
 40
1.0
176
     1
 90
        1
176
     1
 90
        6
176
     1
 90
        2
176
     1
 62
     7
176
     1
 90
        5
176
     1
 90
        0
176
     1
 90
        0
176
     1
290
     0
176
     1
 90
       13
176
     1
 40
0.0
176
     1
 90
        0
176
     1
290
     0
176
     1
290
     1
176
     1
290
     1
176
     1
290
     0
176
     1
290
     0
176
     1
290
     0
176
     1
290
     0
176
     1
290
     0
176
     1
290
     0
176
     1
 90
       50
176
     1
 40
0.0
176
     1
 40
1.0
176
     1
 90
        0
176
     1
 62
    18
420
        0
176
     1
 90
       50
176
     1
 90
        3
176
     1
 62
     5
420
      255
176
     1
290
     0
176
     1
 90
       50
176
     1
 90
       50
176
     1
 90
       50
176
     1
290
     0
176
     1
 90
       50
176
     1
 62
   256
176
     0
 40
1.0
176
     0
 90
        2
176
     1
  1
strokes_ogs.tif
176
     1
290
     0
176
     1
 40
1.0
176
     1
 40
1.0
176
     1
  0
VISUALSTYLE
  5
A84
102
{ACAD_REACTORS
330
A80
102
}
330
A80
100
AcDbVisualStyle
  2
GouraudWithEdges
 70
     3
177
     3
291
     1
 70
    58
 90
        2
176
     1
 90
        2
176
     1
 90
        1
176
     1
 90
        2
176
     1
 40
0.6
176
     1
 40
30.0
176
     1
 62
     7
420
 16777215
176
     1
 90
        1
176
     1
 90
        0
176
     1
 62
     7
176
     1
 62
   257
176
     1
 90
        1
176
     1
 90
        1
176
     1
 40
1.0
176
     1
 90
        0
176
     1
 62
   257
176
     1
 40
1.0
176
     1
 90
        1
176
     1
 90
        6
176
     1
 90
        2
176
     1
 62
     7
176
     1
 90
        5
176
     1
 90
        0
176
     1
 90
        0
176
     1
290
     0
176
     1
 90
       13
176
     1
 40
0.0
176
     1
 90
        0
176
     1
290
     0
176
     1
290
     1
176
     1
290
     1
176
     1
290
     0
176
     1
290
     0
176
     1
290
     0
176
     1
290
     0
176
     1
290
     0
176
     1
290
     0
176
     1
 90
       50
176
     1
 40
0.0
176
     1
 40
1.0
176
     1
 90
        0
176
     1
 62
    18
420
        0
176
     1
 90
       50
176
     1
 90
        3
176
     1
 62
     5
420
      255
176
     1
290
     0
176
     1
 90
       50
176
     1
 90
       50
176
     1
 90
       50
176
     1
290
     0
176
     1
 90
       50
176
     1
 62
   256
176
     0
 40
1.0
176
     0
 90
        2
176
     1
  1
strokes_ogs.tif
176
     1
290
     0
176
     1
 40
1.0
176
     1
 40
1.0
176
     1
  0
VISUALSTYLE
  5
A87
102
{ACAD_REACTORS
330
A80
102
}
330
A80
100
AcDbVisualStyle
  2
Hidden
 70
     6
177
     3
291
     0
 70
    58
 90
        1
176
     1
 90
        2
176
     1
 90
        2
176
     1
 90
        0
176
     1
 40
0.6
176
     1
 40
30.0
176
     1
 62
     7
420
 16777215
176
     1
 90
        2
176
     1
 90
        2
176
     1
 62
     7
176
     1
 62
   257
176
     1
 90
        2
176
     1
 90
        1
176
     1
 40
40.0
176
     1
 90
        0
176
     1
 62
   257
176
     1
 40
1.0
176
     1
 90
        1
176
     1
 90
        6
176
     1
 90
        2
176
     1
 62
     7
176
     1
 90
        3
176
     1
 90
        0
176
     1
 90
        0
176
     1
290
     0
176
     1
 90
        1
176
     1
 40
0.0
176
     1
 90
        0
176
     1
290
     0
176
     1
290
     1
176
     1
290
     1
176
     1
290
     0
176
     1
290
     0
176
     1
290
     0
176
     1
290
     0
176
     1
290
     0
176
     1
290
     0
176
     1
 90
       50
176
     1
 40
0.0
176
     1
 40
1.0
176
     1
 90
        0
176
     1
 62
    18
420
        0
176
     1
 90
       50
176
     1
 90
        3
176
     1
 62
     5
420
      255
176
     1
290
     0
176
     1
 90
       50
176
     1
 90
       50
176
     1
 90
       50
176
     1
290
     0
176
     1
 90
       50
176
     1
 62
   256
176
     0
 40
1.0
176
     0
 90
        2
176
     1
  1
strokes_ogs.tif
176
     1
290
     0
176
     1
 40
1.0
176
     1
 40
1.0
176
     1
  0
VISUALSTYLE
  5
A91
102
{ACAD_REACTORS
330
A80
102
}
330
A80
100
AcDbVisualStyle
  2
JitterOff
 70
    20
177
     3
291
     1
 70
    58
 90
        2
176
     0
 90
        2
176
     0
 90
        0
176
     0
 90
        0
176
     0
 40
0.6
176
     0
 40
30.0
176
     0
 62
     7
420
 16777215
176
     0
 90
        1
176
     0
 90
        4
176
     0
 62
     7
176
     0
 62
   257
176
     0
 90
        1
176
     0
 90
        1
176
     0
 40
1.0
176
     0
 90
       10
176
     2
 62
     7
176
     0
 40
1.0
176
     0
 90
        1
176
     0
 90
        6
176
     0
 90
        2
176
     0
 62
     7
176
     0
 90
        5
176
     0
 90
        0
176
     0
 90
        0
176
     0
290
     0
176
     0
 90
        1
176
     0
 40
0.0
176
     0
 90
        0
176
     0
290
     0
176
     0
290
     1
176
     0
290
     1
176
     0
290
     0
176
     0
290
     0
176
     0
290
     0
176
     0
290
     0
176
     0
290
     0
176
     0
290
     0
176
     0
 90
       50
176
     0
 40
0.0
176
     0
 40
1.0
176
     0
 90
        0
176
     0
 62
    18
420
        0
176
     0
 90
       50
176
     0
 90
        3
176
     0
 62
     5
420
      255
176
     0
290
     0
176
     0
 90
       50
176
     0
 90
       50
176
     0
 90
       50
176
     0
290
     0
176
     0
 90
       50
176
     0
 62
   256
176
     0
 40
1.0
176
     0
 90
        2
176
     0
  1
strokes_ogs.tif
176
     0
290
     0
176
     0
 40
1.0
176
     0
 40
1.0
176
     0
  0
VISUALSTYLE
  5
A8E
102
{ACAD_REACTORS
330
A80
102
}
330
A80
100
AcDbVisualStyle
  2
Linepattern
 70
    14
177
     3
291
     1
 70
    58
 90
        2
176
     1
 90
        2
176
     1
 90
        0
176
     1
 90
        0
176
     1
 40
0.6
176
     1
 40
30.0
176
     1
 62
     7
420
 16777215
176
     1
 90
        1
176
     1
 90
        4
176
     1
 62
     7
176
     1
 62
   257
176
     1
 90
        7
176
     1
 90
        7
176
     1
 40
1.0
176
     1
 90
        8
176
     1
 62
     7
176
     1
 40
1.0
176
     1
 90
        1
176
     1
 90
        6
176
     1
 90
        2
176
     1
 62
     7
176
     1
 90
        5
176
     1
 90
        0
176
     1
 90
        0
176
     1
290
     0
176
     1
 90
        1
176
     1
 40
0.0
176
     1
 90
        0
176
     1
290
     0
176
     1
290
     1
176
     1
290
     1
176
     1
290
     0
176
     1
290
     0
176
     1
290
     0
176
     1
290
     0
176
     1
290
     0
176
     1
290
     0
176
     1
 90
       50
176
     1
 40
0.0
176
     1
 40
1.0
176
     1
 90
        0
176
     1
 62
    18
420
        0
176
     1
 90
       50
176
     1
 90
        3
176
     1
 62
     5
420
      255
176
     1
290
     0
176
     1
 90
       50
176
     1
 90
       50
176
     1
 90
       50
176
     1
290
     0
176
     1
 90
       50
176
     1
 62
   256
176
     0
 40
1.0
176
     0
 90
        2
176
     1
  1
strokes_ogs.tif
176
     1
290
     0
176
     1
 40
1.0
176
     1
 40
1.0
176
     1
  0
VISUALSTYLE
  5
A92
102
{ACAD_REACTORS
330
A80
102
}
330
A80
100
AcDbVisualStyle
  2
OverhangOff
 70
    21
177
     3
291
     1
 70
    58
 90
        2
176
     0
 90
        2
176
     0
 90
        0
176
     0
 90
        0
176
     0
 40
0.6
176
     0
 40
30.0
176
     0
 62
     7
420
 16777215
176
     0
 90
        1
176
     0
 90
        4
176
     0
 62
     7
176
     0
 62
   257
176
     0
 90
        1
176
     0
 90
        1
176
     0
 40
1.0
176
     0
 90
        9
176
     2
 62
     7
176
     0
 40
1.0
176
     0
 90
        1
176
     0
 90
        6
176
     0
 90
        2
176
     0
 62
     7
176
     0
 90
        5
176
     0
 90
        0
176
     0
 90
        0
176
     0
290
     0
176
     0
 90
        1
176
     0
 40
0.0
176
     0
 90
        0
176
     0
290
     0
176
     0
290
     1
176
     0
290
     1
176
     0
290
     0
176
     0
290
     0
176
     0
290
     0
176
     0
290
     0
176
     0
290
     0
176
     0
290
     0
176
     0
 90
       50
176
     0
 40
0.0
176
     0
 40
1.0
176
     0
 90
        0
176
     0
 62
    18
420
        0
176
     0
 90
       50
176
     0
 90
        3
176
     0
 62
     5
420
      255
176
     0
290
     0
176
     0
 90
       50
176
     0
 90
       50
176
     0
 90
       50
176
     0
290
     0
176
     0
 90
       50
176
     0
 62
   256
176
     0
 40
1.0
176
     0
 90
        2
176
     0
  1
strokes_ogs.tif
176
     0
290
     0
176
     0
 40
1.0
176
     0
 40
1.0
176
     0
  0
VISUALSTYLE
  5
A89
102
{ACAD_REACTORS
330
A80
102
}
330
A80
100
AcDbVisualStyle
  2
Realistic
 70
     8
177
     3
291
     0
 70
    58
 90
        2
176
     1
 90
        3
176
     1
 90
        0
176
     1
 90
        2
176
     1
 40
0.6
176
     1
 40
30.0
176
     1
 62
     7
420
 16777215
176
     1
 90
        0
176
     1
 90
        0
176
     1
 62
     7
176
     1
 62
   257
176
     1
 90
        1
176
     1
 90
        1
176
     1
 40
1.0
176
     1
 90
        8
176
     1
 62
   257
176
     1
 40
1.0
176
     1
 90
        1
176
     1
 90
        6
176
     1
 90
        2
176
     1
 62
     7
176
     1
 90
        3
176
     1
 90
        0
176
     1
 90
        0
176
     1
290
     0
176
     1
 90
       13
176
     1
 40
0.0
176
     1
 90
        0
176
     1
290
     0
176
     1
290
     1
176
     1
290
     1
176
     1
290
     0
176
     1
290
     0
176
     1
290
     0
176
     1
290
     0
176
     1
290
     0
176
     1
290
     0
176
     1
 90
       50
176
     1
 40
0.0
176
     1
 40
1.0
176
     1
 90
        0
176
     1
 62
    18
420
        0
176
     1
 90
       50
176
     1
 90
        3
176
     1
 62
     5
420
      255
176
     1
290
     0
176
     1
 90
       50
176
     1
 90
       50
176
     1
 90
       50
176
     1
290
     0
176
     1
 90
       50
176
     1
 62
   256
176
     0
 40
1.0
176
     0
 90
        2
176
     1
  1
strokes_ogs.tif
176
     1
290
     0
176
     1
 40
1.0
176
     1
 40
1.0
176
     1
  0
VISUALSTYLE
  5
A98
102
{ACAD_REACTORS
330
A80
102
}
330
A80
100
AcDbVisualStyle
  2
Shaded
 70
    27
177
     3
291
     0
 70
    58
 90
        2
176
     1
 90
        2
176
     1
 90
        1
176
     1
 90
        2
176
     1
 40
0.6
176
     1
 40
30.0
176
     1
 62
     7
420
 16777215
176
     1
 90
        0
176
     1
 90
        4
176
     1
 62
     7
176
     1
 62
   257
176
     1
 90
        1
176
     1
 90
        1
176
     1
 40
1.0
176
     1
 90
        8
176
     1
 62
   257
176
     1
 40
1.0
176
     1
 90
        1
176
     1
 90
        6
176
     1
 90
        2
176
     1
 62
     8
420
  7895160
176
     1
 90
        3
176
     1
 90
        0
176
     1
 90
        0
176
     1
290
     0
176
     1
 90
        5
176
     1
 40
0.0
176
     1
 90
        0
176
     1
290
     0
176
     1
290
     1
176
     1
290
     1
176
     1
290
     0
176
     1
290
     0
176
     1
290
     0
176
     1
290
     0
176
     1
290
     0
176
     1
290
     0
176
     1
 90
       50
176
     1
 40
0.0
176
     1
 40
1.0
176
     1
 90
        0
176
     1
 62
    18
420
        0
176
     1
 90
       50
176
     1
 90
        3
176
     1
 62
     5
420
      255
176
     1
290
     0
176
     1
 90
       50
176
     1
 90
       50
176
     1
 90
       50
176
     1
290
     0
176
     1
 90
       50
176
     1
 62
   256
176
     0
 40
1.0
176
     0
 90
        2
176
     1
  1
strokes_ogs.tif
176
     1
290
     0
176
     1
 40
1.0
176
     1
 40
1.0
176
     1
  0
VISUALSTYLE
  5
A97
102
{ACAD_REACTORS
330
A80
102
}
330
A80
100
AcDbVisualStyle
  2
Shaded with edges
 70
    26
177
     3
291
     0
 70
    58
 90
        2
176
     1
 90
        2
176
     1
 90
        1
176
     1
 90
        2
176
     1
 40
0.6
176
     1
 40
30.0
176
     1
 62
     7
420
 16777215
176
     1
 90
        1
176
     1
 90
       10
176
     1
 62
     7
176
     1
 62
   257
176
     1
 90
        2
176
     1
 90
        1
176
     1
 40
1.0
176
     1
 90
        8
176
     1
 62
   257
176
     1
 40
1.0
176
     1
 90
        1
176
     1
 90
        6
176
     1
 90
        2
176
     1
 62
     7
176
     1
 90
        3
176
     1
 90
        0
176
     1
 90
        0
176
     1
290
     0
176
     1
 90
        5
176
     1
 40
0.0
176
     1
 90
        0
176
     1
290
     0
176
     1
290
     1
176
     1
290
     1
176
     1
290
     0
176
     1
290
     0
176
     1
290
     0
176
     1
290
     0
176
     1
290
     0
176
     1
290
     0
176
     1
 90
       50
176
     1
 40
0.0
176
     1
 40
1.0
176
     1
 90
        0
176
     1
 62
    18
420
        0
176
     1
 90
       50
176
     1
 90
        3
176
     1
 62
     5
420
      255
176
     1
290
     0
176
     1
 90
       50
176
     1
 90
       50
176
     1
 90
       50
176
     1
290
     0
176
     1
 90
       50
176
     1
 62
   256
176
     0
 40
1.0
176
     0
 90
        2
176
     1
  1
strokes_ogs.tif
176
     1
290
     0
176
     1
 40
1.0
176
     1
 40
1.0
176
     1
  0
VISUALSTYLE
  5
A94
102
{ACAD_REACTORS
330
A80
102
}
330
A80
100
AcDbVisualStyle
  2
Shades of Gray
 70
    23
177
     3
291
     0
 70
    58
 90
        2
176
     1
 90
        2
176
     1
 90
        3
176
     1
 90
        0
176
     1
 40
0.6
176
     1
 40
30.0
176
     1
 62
     7
420
 16777215
176
     1
 90
        2
176
     1
 90
        2
176
     1
 62
     7
176
     1
 62
     7
176
     1
 90
        1
176
     1
 90
        1
176
     1
 40
40.0
176
     1
 90
        8
176
     1
 62
     7
176
     1
 40
1.0
176
     1
 90
        1
176
     1
 90
        6
176
     1
 90
        2
176
     1
 62
     7
176
     1
 90
        3
176
     1
 90
        0
176
     1
 90
        0
176
     1
290
     0
176
     1
 90
        1
176
     1
 40
0.0
176
     1
 90
        0
176
     1
290
     0
176
     1
290
     1
176
     1
290
     1
176
     1
290
     0
176
     1
290
     0
176
     1
290
     0
176
     1
290
     0
176
     1
290
     0
176
     1
290
     0
176
     1
 90
       50
176
     1
 40
0.0
176
     1
 40
1.0
176
     1
 90
        0
176
     1
 62
    18
420
        0
176
     1
 90
       50
176
     1
 90
        3
176
     1
 62
     5
420
      255
176
     1
290
     0
176
     1
 90
       50
176
     1
 90
       50
176
     1
 90
       50
176
     1
290
     0
176
     1
 90
       50
176
     1
 62
   256
176
     0
 40
1.0
176
     0
 90
        2
176
     1
  1
strokes_ogs.tif
176
     1
290
     0
176
     1
 40
1.0
176
     1
 40
1.0
176
     1
  0
VISUALSTYLE
  5
A95
102
{ACAD_REACTORS
330
A80
102
}
330
A80
100
AcDbVisualStyle
  2
Sketchy
 70
    24
177
     3
291
     0
 70
    58
 90
        1
176
     1
 90
        2
176
     1
 90
        2
176
     1
 90
        0
176
     1
 40
0.6
176
     1
 40
30.0
176
     1
 62
     7
420
 16777215
176
     1
 90
        2
176
     1
 90
        2
176
     1
 62
     7
176
     1
 62
     7
176
     1
 90
        1
176
     1
 90
        1
176
     1
 40
40.0
176
     1
 90
       11
176
     1
 62
     7
176
     1
 40
1.0
176
     1
 90
        1
176
     1
 90
        6
176
     1
 90
        2
176
     1
 62
     7
176
     1
 90
        6
176
     1
 90
        0
176
     1
 90
        0
176
     1
290
     0
176
     1
 90
        1
176
     1
 40
0.0
176
     1
 90
        0
176
     1
290
     0
176
     1
290
     1
176
     1
290
     1
176
     1
290
     0
176
     1
290
     0
176
     1
290
     0
176
     1
290
     0
176
     1
290
     0
176
     1
290
     0
176
     1
 90
       50
176
     1
 40
0.0
176
     1
 40
1.0
176
     1
 90
        0
176
     1
 62
    18
420
        0
176
     1
 90
       50
176
     1
 90
        3
176
     1
 62
     5
420
      255
176
     1
290
     0
176
     1
 90
       50
176
     1
 90
       50
176
     1
 90
       50
176
     1
290
     0
176
     1
 90
       50
176
     1
 62
   256
176
     0
 40
1.0
176
     0
 90
        2
176
     1
  1
strokes_ogs.tif
176
     1
290
     0
176
     1
 40
1.0
176
     1
 40
1.0
176
     1
  0
VISUALSTYLE
  5
A8D
102
{ACAD_REACTORS
330
A80
102
}
330
A80
100
AcDbVisualStyle
  2
Thicken
 70
    13
177
     3
291
     1
 70
    58
 90
        2
176
     1
 90
        2
176
     1
 90
        0
176
     1
 90
        0
176
     1
 40
0.6
176
     1
 40
30.0
176
     1
 62
     7
420
 16777215
176
     1
 90
        1
176
     1
 90
        4
176
     1
 62
     7
176
     1
 62
   257
176
     1
 90
        1
176
     1
 90
        1
176
     1
 40
1.0
176
     1
 90
       12
176
     1
 62
     7
176
     1
 40
1.0
176
     1
 90
        1
176
     1
 90
        6
176
     1
 90
        2
176
     1
 62
     7
176
     1
 90
        5
176
     1
 90
        0
176
     1
 90
        0
176
     1
290
     0
176
     1
 90
        1
176
     1
 40
0.0
176
     1
 90
        0
176
     1
290
     0
176
     1
290
     1
176
     1
290
     1
176
     1
290
     0
176
     1
290
     0
176
     1
290
     0
176
     1
290
     0
176
     1
290
     0
176
     1
290
     0
176
     1
 90
       50
176
     1
 40
0.0
176
     1
 40
1.0
176
     1
 90
        0
176
     1
 62
    18
420
        0
176
     1
 90
       50
176
     1
 90
        3
176
     1
 62
     5
420
      255
176
     1
290
     0
176
     1
 90
       50
176
     1
 90
       50
176
     1
 90
       50
176
     1
290
     0
176
     1
 90
       50
176
     1
 62
   256
176
     0
 40
1.0
176
     0
 90
        2
176
     1
  1
strokes_ogs.tif
176
     1
290
     0
176
     1
 40
1.0
176
     1
 40
1.0
176
     1
  0
VISUALSTYLE
  5
A86
102
{ACAD_REACTORS
330
A80
102
}
330
A80
100
AcDbVisualStyle
  2
Wireframe
 70
     5
177
     3
291
     0
 70
    58
 90
        0
176
     1
 90
        2
176
     1
 90
        0
176
     1
 90
        0
176
     1
 40
0.6
176
     1
 40
30.0
176
     1
 62
     7
420
 16777215
176
     1
 90
        1
176
     1
 90
        4
176
     1
 62
     7
176
     1
 62
   257
176
     1
 90
        1
176
     1
 90
        1
176
     1
 40
1.0
176
     1
 90
        0
176
     1
 62
   257
176
     1
 40
1.0
176
     1
 90
        1
176
     1
 90
        6
176
     1
 90
        2
176
     1
 62
     7
176
     1
 90
        3
176
     1
 90
        0
176
     1
 90
        0
176
     1
290
     0
176
     1
 90
        1
176
     1
 40
0.0
176
     1
 90
        0
176
     1
290
     0
176
     1
290
     1
176
     1
290
     1
176
     1
290
     0
176
     1
290
     0
176
     1
290
     0
176
     1
290
     0
176
     1
290
     0
176
     1
290
     0
176
     1
 90
       50
176
     1
 40
0.0
176
     1
 40
1.0
176
     1
 90
        0
176
     1
 62
    18
420
        0
176
     1
 90
       50
176
     1
 90
        3
176
     1
 62
     5
420
      255
176
     1
290
     0
176
     1
 90
       50
176
     1
 90
       50
176
     1
 90
       50
176
     1
290
     0
176
     1
 90
       50
176
     1
 62
   256
176
     0
 40
1.0
176
     0
 90
        2
176
     1
  1
strokes_ogs.tif
176
     1
290
     0
176
     1
 40
1.0
176
     1
 40
1.0
176
     1
  0
VISUALSTYLE
  5
A96
102
{ACAD_REACTORS
330
A80
102
}
330
A80
100
AcDbVisualStyle
  2
X-Ray
 70
    25
177
     3
291
     0
 70
    58
 90
        2
176
     1
 90
        2
176
     1
 90
        1
176
     1
 90
        1
176
     1
 40
0.5
176
     1
 40
30.0
176
     1
 62
     7
420
 16777215
176
     1
 90
        1
176
     1
 90
        0
176
     1
 62
     7
176
     1
 62
   257
176
     1
 90
        1
176
     1
 90
        1
176
     1
 40
1.0
176
     1
 90
        8
176
     1
 62
     7
176
     1
 40
1.0
176
     1
 90
        1
176
     1
 90
        6
176
     1
 90
        2
176
     1
 62
     7
176
     1
 90
        3
176
     1
 90
        0
176
     1
 90
        0
176
     1
290
     0
176
     1
 90
       13
176
     1
 40
0.0
176
     1
 90
        0
176
     1
290
     0
176
     1
290
     1
176
     1
290
     1
176
     1
290
     0
176
     1
290
     0
176
     1
290
     0
176
     1
290
     0
176
     1
290
     0
176
     1
290
     0
176
     1
 90
       50
176
     1
 40
0.0
176
     1
 40
1.0
176
     1
 90
        0
176
     1
 62
    18
420
        0
176
     1
 90
       50
176
     1
 90
        3
176
     1
 62
     5
420
      255
176
     1
290
     0
176
     1
 90
       50
176
     1
 90
       50
176
     1
 90
       50
176
     1
290
     0
176
     1
 90
       50
176
     1
 62
   256
176
     0
 40
1.0
176
     0
 90
        2
176
     1
  1
strokes_ogs.tif
176
     1
290
     0
176
     1
 40
1.0
176
     1
 40
1.0
176
     1
  0
DICTIONARYVAR
  5
AC7
102
{ACAD_REACTORS
330
AC6
102
}
330
AC6
100
DictionaryVariables
280
     0
  1
1:1
  0
DICTIONARYVAR
  5
AC9
102
{ACAD_REACTORS
330
AC6
102
}
330
AC6
100
DictionaryVariables
280
     0
  1
Standard
  0
DICTIONARYVAR
  5
AC8
102
{ACAD_REACTORS
330
AC6
102
}
330
AC6
100
DictionaryVariables
280
     0
  1
Standard
  0
DICTIONARYVAR
  5
ACA
102
{ACAD_REACTORS
330
AC6
102
}
330
AC6
100
DictionaryVariables
280
     0
  1
0
  0
DICTIONARYVAR
  5
B9C
102
{ACAD_REACTORS
330
AED
102
}
330
AED
100
DictionaryVariables
280
     0
  1
1
  0
DICTIONARY
  5
1524
330
AC0
100
AcDbDictionary
280
     1
281
     1
  3
ACAD_ROUNDTRIP_2008_TABLESTYLE_CELLSTYLEMAP
360
1525
  0
CELLSTYLEMAP
  5
1525
102
{ACAD_REACTORS
330
1524
102
}
330
1524
100
AcDbCellStyleMap
 90
        3
300
CELLSTYLE
  1
TABLEFORMAT_BEGIN
 90
        5
170
     1
 91
        0
 92
    32768
 62
   257
 93
        1
300
CONTENTFORMAT
  1
CONTENTFORMAT_BEGIN
 90
        0
 91
        0
 92
        4
 93
        0
300

 40
0.0
140
1.0
 94
        5
 62
     0
340
11
144
0.25
309
CONTENTFORMAT_END
171
     1
301
MARGIN
  1
CELLMARGIN_BEGIN
 40
0.06
 40
0.06
 40
0.06
 40
0.06
 40
0.06
 40
0.06
309
CELLMARGIN_END
 94
        6
 95
        1
302
GRIDFORMAT
  1
GRIDFORMAT_BEGIN
 90
        0
 91
        1
 62
     0
 92
       -2
340
14
 93
        0
 40
0.045
309
GRIDFORMAT_END
 95
        2
302
GRIDFORMAT
  1
GRIDFORMAT_BEGIN
 90
        0
 91
        1
 62
     0
 92
       -2
340
14
 93
        0
 40
0.045
309
GRIDFORMAT_END
 95
        4
302
GRIDFORMAT
  1
GRIDFORMAT_BEGIN
 90
        0
 91
        1
 62
     0
 92
       -2
340
14
 93
        0
 40
0.045
309
GRIDFORMAT_END
 95
        8
302
GRIDFORMAT
  1
GRIDFORMAT_BEGIN
 90
        0
 91
        1
 62
     0
 92
       -2
340
14
 93
        0
 40
0.045
309
GRIDFORMAT_END
 95
       16
302
GRIDFORMAT
  1
GRIDFORMAT_BEGIN
 90
        0
 91
        1
 62
     0
 92
       -2
340
14
 93
        0
 40
0.045
309
GRIDFORMAT_END
 95
       32
302
GRIDFORMAT
  1
GRIDFORMAT_BEGIN
 90
        0
 91
        1
 62
     0
 92
       -2
340
14
 93
        0
 40
0.045
309
GRIDFORMAT_END
309
TABLEFORMAT_END
  1
CELLSTYLE_BEGIN
 90
        1
 91
        1
300
_TITLE
309
CELLSTYLE_END
300
CELLSTYLE
  1
TABLEFORMAT_BEGIN
 90
        5
170
     1
 91
        0
 92
        0
 62
   257
 93
        1
300
CONTENTFORMAT
  1
CONTENTFORMAT_BEGIN
 90
        0
 91
        0
 92
        4
 93
        0
300

 40
0.0
140
1.0
 94
        5
 62
     0
340
11
144
0.18
309
CONTENTFORMAT_END
171
     1
301
MARGIN
  1
CELLMARGIN_BEGIN
 40
0.06
 40
0.06
 40
0.06
 40
0.06
 40
0.06
 40
0.06
309
CELLMARGIN_END
 94
        6
 95
        1
302
GRIDFORMAT
  1
GRIDFORMAT_BEGIN
 90
        0
 91
        1
 62
     0
 92
       -2
340
14
 93
        0
 40
0.045
309
GRIDFORMAT_END
 95
        2
302
GRIDFORMAT
  1
GRIDFORMAT_BEGIN
 90
        0
 91
        1
 62
     0
 92
       -2
340
14
 93
        0
 40
0.045
309
GRIDFORMAT_END
 95
        4
302
GRIDFORMAT
  1
GRIDFORMAT_BEGIN
 90
        0
 91
        1
 62
     0
 92
       -2
340
14
 93
        0
 40
0.045
309
GRIDFORMAT_END
 95
        8
302
GRIDFORMAT
  1
GRIDFORMAT_BEGIN
 90
        0
 91
        1
 62
     0
 92
       -2
340
14
 93
        0
 40
0.045
309
GRIDFORMAT_END
 95
       16
302
GRIDFORMAT
  1
GRIDFORMAT_BEGIN
 90
        0
 91
        1
 62
     0
 92
       -2
340
14
 93
        0
 40
0.045
309
GRIDFORMAT_END
 95
       32
302
GRIDFORMAT
  1
GRIDFORMAT_BEGIN
 90
        0
 91
        1
 62
     0
 92
       -2
340
14
 93
        0
 40
0.045
309
GRIDFORMAT_END
309
TABLEFORMAT_END
  1
CELLSTYLE_BEGIN
 90
        2
 91
        1
300
_HEADER
309
CELLSTYLE_END
300
CELLSTYLE
  1
TABLEFORMAT_BEGIN
 90
        5
170
     1
 91
        0
 92
        0
 62
   257
 93
        1
300
CONTENTFORMAT
  1
CONTENTFORMAT_BEGIN
 90
        0
 91
        0
 92
        4
 93
        0
300

 40
0.0
140
1.0
 94
        2
 62
     0
340
11
144
0.18
309
CONTENTFORMAT_END
171
     1
301
MARGIN
  1
CELLMARGIN_BEGIN
 40
0.06
 40
0.06
 40
0.06
 40
0.06
 40
0.06
 40
0.06
309
CELLMARGIN_END
 94
        6
 95
        1
302
GRIDFORMAT
  1
GRIDFORMAT_BEGIN
 90
        0
 91
        1
 62
     0
 92
       -2
340
14
 93
        0
 40
0.045
309
GRIDFORMAT_END
 95
        2
302
GRIDFORMAT
  1
GRIDFORMAT_BEGIN
 90
        0
 91
        1
 62
     0
 92
       -2
340
14
 93
        0
 40
0.045
309
GRIDFORMAT_END
 95
        4
302
GRIDFORMAT
  1
GRIDFORMAT_BEGIN
 90
        0
 91
        1
 62
     0
 92
       -2
340
14
 93
        0
 40
0.045
309
GRIDFORMAT_END
 95
        8
302
GRIDFORMAT
  1
GRIDFORMAT_BEGIN
 90
        0
 91
        1
 62
     0
 92
       -2
340
14
 93
        0
 40
0.045
309
GRIDFORMAT_END
 95
       16
302
GRIDFORMAT
  1
GRIDFORMAT_BEGIN
 90
        0
 91
        1
 62
     0
 92
       -2
340
14
 93
        0
 40
0.045
309
GRIDFORMAT_END
 95
       32
302
GRIDFORMAT
  1
GRIDFORMAT_BEGIN
 90
        0
 91
        1
 62
     0
 92
       -2
340
14
 93
        0
 40
0.045
309
GRIDFORMAT_END
309
TABLEFORMAT_END
  1
CELLSTYLE_BEGIN
 90
        3
 91
        2
300
_DATA
309
CELLSTYLE_END
  0
ENDSEC
  0
SECTION
  2
ACDSDATA
 70
     2
 71
     2
  0
ACDSSCHEMA
 90
        0
  1
AcDb_Thumbnail_Schema
  2
AcDbDs::ID
280
    10
 91
        8
  2
Thumbnail_Data
280
    15
 91
        0
101
ACDSRECORD
 95
        0
 90
        2
  2
AcDbDs::TreatedAsObjectData
280
     1
291
     1
101
ACDSRECORD
 95
        0
 90
        3
  2
AcDbDs::Legacy
280
     1
291
     1
101
ACDSRECORD
  1
AcDbDs::ID
 90
        4
  2
AcDs:Indexable
280
     1
291
     1
101
ACDSRECORD
  1
AcDbDs::ID
 90
        5
  2
AcDbDs::HandleAttribute
280
     7
282
     1
  0
ACDSSCHEMA
 90
        1
  1
AcDb3DSolid_ASM_Data
  2
AcDbDs::ID
280
    10
 91
        8
  2
ASM_Data
280
    15
 91
        0
101
ACDSRECORD
 95
        1
 90
        2
  2
AcDbDs::TreatedAsObjectData
280
     1
291
     1
101
ACDSRECORD
 95
        1
 90
        3
  2
AcDbDs::Legacy
280
     1
291
     1
101
ACDSRECORD
  1
AcDbDs::ID
 90
        4
  2
AcDs:Indexable
280
     1
291
     1
101
ACDSRECORD
  1
AcDbDs::ID
 90
        5
  2
AcDbDs::HandleAttribute
280
     7
282
     1
  0
ACDSSCHEMA
 90
        2
  1
AcDbDs::TreatedAsObjectDataSchema
  2
AcDbDs::TreatedAsObjectData
280
     1
 91
        0
  0
ACDSSCHEMA
 90
        3
  1
AcDbDs::LegacySchema
  2
AcDbDs::Legacy
280
     1
 91
        0
  0
ACDSSCHEMA
 90
        4
  1
AcDbDs::IndexedPropertySchema
  2
AcDs:Indexable
280
     1
 91
        0
  0
ACDSSCHEMA
 90
        5
  1
AcDbDs::HandleAttributeSchema
  2
AcDbDs::HandleAttribute
280
     7
 91
        1
284
     1
  0
ACDSRECORD
 90
        0
  2
AcDbDs::ID
280
    10
320
22
  2
Thumbnail_Data
280
    15
 94
      177
310
89504E470D0A1A0A0000000D494844520000010000000067080200000060960B67000000097048597300000EC400000EC401952B0E1B0000006349444154789CEDC101010000008220FFAF6E484001000000000000000000000000000000000000000000000000000000000000000000000000000000000000000000000000
310
000000000000000000000000000000000000000000000000000000C0BD01357600017A64962F0000000049454E44AE426082
  0
ACDSRECORD
 90
        0
  2
AcDbDs::ID
280
    10
320
A7B
  2
Thumbnail_Data
280
    15
 94
     1624
310
89504E470D0A1A0A0000000D494844520000010000000067080200000060960B67000000097048597300000EC400000EC401952B0E1B0000060A49444154789CEDDDC96ED30C1405E0133C30C44E5AB519CA904174CB1209F15C7DA03E006FD0374125750824C47595891412BBD1BFB0847E5154BAB1EFA5E77EEB2C8E4F39
310
258D1DBB727A7A0A63583D920E608C24573AC09FCD66B3B76FDF562A15E920A43E7DFAB4DBEDA4539441E900D2347DFFFEBD0D40CA7ABD1E8FC7D229CA606F810C351B80A1660330D46C00869A0DC050B301186A3600434DE979805F3E7EFCF8E8D12300B55AADD96C02188FC7D7D7D700FAFDBEE3388BC5E2F2F212C0DEDE
310
DEE1E12180C160B0DBED3CCFEB76BB0066B3D9D5D5158076BB1D04C176BBFDFCF933802008DAED3680C964B25EAF0174BB5DCFF356ABD5743A0550AFD71B8D0680288AB22C731CA7DFEF0398CFE749920068369BB55A2DCBB2288A00F8BEDFE974004CA7D3D56A05A0D3E9F8BEBFD96C46A31180300C5BAD1680E17098A629
310
805EAFE7BAEE72B98CE31840A3D1A8D7EB002E2E2E6E6E6E5CD7EDF57A00E2385E2E97005AAD561886699A0E87C3FF1FC26834DA6C36B70FE1E0E0607F7FFFF6212449329FCF6F1F429224EFDEBD2BF847AA4B45E7B540711C9F9C9C542A95F3F3F3E3E363E9382C7EB57D76766627C2540882403A0211C2B6B50F20FF2FDE
310
9483B06DED0330A650DA0790FFC16ACA41D8B6F6016CB75BE9084408DBD6FE31E87DAE88DEED76F907A3E60EBEEFFBBE7FF76B08AF3FD73E80D7AF5FFFF53583C1A05AAD9610E69F9624C99B376FEE7ECD7DDA7E60B40FE09E8E8E8EA42368979FEC33BFD1FE37C06432918E4084B06DED03B0DF5B65226C5BFB008C2994F6
310
01E417B4997210B6AD7D009EE749472042D8B6F601E497019B7210B6AD7D00F985F2A61C846D6B1F803185D23E80E7CF9F4B472042D8B6F6013C7BF64C3A0211C2B6B50FE0E7CF9FD2118810B6AD7D005FBE7C918E4084B06DED0330A650DA0790DF26C49483B06DED03C8EFCC63CA41D8B6F601185328ED03180C06D21188
310
10B6AD7D00244FAA5282B06DED03203C352388B06DED03203C392F88B06DED0330A650DA0740786E521061DBDA074078758A20C2B6B50FC09842691F00E1BDCA0411B6AD7D008477AB1444D8B6F601107E4B551061DBDA0740789F0241846D6B1F803185D23E8057AF5E49472042D8B6F6013C7EFC583A0211C2B6B50FE0FB
310
F7EFD2118810B6AD7D00DFBE7D938E4084B06DED0330A650DA0740F8E86641846D6B1F401004D2118810B6AD7D00844FAE1544D8B6F601103EBB5C1061DBDA07604CA1B40F200C43E9084408DBD63E8056AB251D810861DBDA07604CA1B40F60381C4A472042D8B6F601A4692A1D810861DBDA0740787DA220C2B6B50F80F0
310
0A7541846D6B1F803185D23E80F1782C1D810861DBDA07707D7D2D1D810861DBDA07604CA1B40FA0DFEF4B472042D8B6F601388E231D810861DBDA07902489740422846D6B1FC07C3E978E4084B06DED0330A650DA07F0E2C50BE9084408DBD63E80A74F9F4A472042D8B6F601FCF8F1433A0211C2B6B50FE0EBD7AFD21188
310
10B6AD7D00C6144AFB001A8D86740422846D6B1F40BD5E978E4084B06D573AC05F6459E6BA7F09F9E4C993F3F3F372F2FCBBEEF375C7FBB4FDC0683FDA288A8E8F8FEF7ECDCB972FCB09F3E0DDA7ED0746FB5B20630AA57D00D56A553A0211C2B6B50FE0E8E8483A0211C2B6B50FC09842691FC06834928E4084B06DED03D8
310
6C36D2118810B6ADFD6350C771F2CFF86BB55AB3D904301E8FF39B17F4FB7DC771168BC5E5E52580BDBDBDC3C3430083C160B7DB799ED7ED7601CC66B3ABAB2B00ED763B0882ED769B3F06220882FC915893C964BD5E03E876BB9EE7AD56ABE9740AA05EAFE76746A328CAB2CC719CFC2BB3F3F93CFFE654B3D9ACD56A5996
310
455104C0F7FD4EA703603A9DAE562B009D4EC7F7FDCD6693FF660DC330BFFDF27038CC3F95EFF57AAEEB2E97CB388E01341A8DFC54D4C5C5C5CDCD8DEBBABD5E0F401CC7CBE51240ABD50AC3304DD3FC269EBF0E61341AE5FF767F3B84838383FDFDFDDB87902449FEDD97DF0E61B15814FCF354A7727A7A2A9DE10FE2383E
310
3939A9542AD241489D9D9D91DC2348FB5B20630A650330D46C00869A0DC050B301186A360043CD0660A8293D1156AD563F7CF860E701A4CC6633DFF7A5539441EF0008EF55AF07C9BF7ED85B2043EE3F0B06167059EF71440000000049454E44AE426082
  0
ENDSEC
  0
EOF
