  0
SECTION
  2
HEADER
  9
$ACADVER
  1
AC1014
  9
$ACADMAINTVER
 70
     9
  9
$DWGCODEPAGE
  3
ANSI_1252
  9
$INSBASE
 10
0.0
 20
0.0
 30
0.0
  9
$EXTMIN
 10
-775.5293745516271
 20
811.1769294711892
 30
0.0
  9
$EXTMAX
 10
-690.4779375780121
 20
861.5694512652142
 30
0.0
  9
$LIMMIN
 10
0.0
 20
0.0
  9
$LIMMAX
 10
12.0
 20
9.0
  9
$ORTHOMODE
 70
     0
  9
$REGENMODE
 70
     1
  9
$FILLMODE
 70
     1
  9
$QTEXTMODE
 70
     0
  9
$MIRRTEXT
 70
     1
  9
$DRAGMODE
 70
     2
  9
$LTSCALE
 40
1.0
  9
$OSMODE
 70
    37
  9
$ATTMODE
 70
     1
  9
$TEXTSIZE
 40
0.2
  9
$TRACEWID
 40
0.05
  9
$TEXTSTYLE
  7
STANDARD
  9
$CLAYER
  8
AUFSPANNFLAECHE_ANLAGE
  9
$CELTYPE
  6
BYLAYER
  9
$CECOLOR
 62
   256
  9
$CELTSCALE
 40
1.0
  9
$DELOBJ
 70
     1
  9
$DISPSILH
 70
     0
  9
$DIMSCALE
 40
1.0
  9
$DIMASZ
 40
0.18
  9
$DIMEXO
 40
0.0625
  9
$DIMDLI
 40
0.38
  9
$DIMRND
 40
0.0
  9
$DIMDLE
 40
0.0
  9
$DIMEXE
 40
0.18
  9
$DIMTP
 40
0.0
  9
$DIMTM
 40
0.0
  9
$DIMTXT
 40
0.18
  9
$DIMCEN
 40
0.09
  9
$DIMTSZ
 40
0.0
  9
$DIMTOL
 70
     0
  9
$DIMLIM
 70
     0
  9
$DIMTIH
 70
     1
  9
$DIMTOH
 70
     1
  9
$DIMSE1
 70
     0
  9
$DIMSE2
 70
     0
  9
$DIMTAD
 70
     0
  9
$DIMZIN
 70
     0
  9
$DIMBLK
  1

  9
$DIMASO
 70
     1
  9
$DIMSHO
 70
     1
  9
$DIMPOST
  1

  9
$DIMAPOST
  1

  9
$DIMALT
 70
     0
  9
$DIMALTD
 70
     2
  9
$DIMALTF
 40
25.4
  9
$DIMLFAC
 40
1.0
  9
$DIMTOFL
 70
     0
  9
$DIMTVP
 40
0.0
  9
$DIMTIX
 70
     0
  9
$DIMSOXD
 70
     0
  9
$DIMSAH
 70
     0
  9
$DIMBLK1
  1

  9
$DIMBLK2
  1

  9
$DIMSTYLE
  2
STANDARD
  9
$DIMCLRD
 70
     0
  9
$DIMCLRE
 70
     0
  9
$DIMCLRT
 70
     0
  9
$DIMTFAC
 40
1.0
  9
$DIMGAP
 40
0.09
  9
$DIMJUST
 70
     0
  9
$DIMSD1
 70
     0
  9
$DIMSD2
 70
     0
  9
$DIMTOLJ
 70
     1
  9
$DIMTZIN
 70
     0
  9
$DIMALTZ
 70
     0
  9
$DIMALTTZ
 70
     0
  9
$DIMFIT
 70
     5
  9
$DIMUPT
 70
     0
  9
$DIMUNIT
 70
     2
  9
$DIMDEC
 70
     4
  9
$DIMTDEC
 70
     4
  9
$DIMALTU
 70
     2
  9
$DIMALTTD
 70
     2
  9
$DIMTXSTY
  7
STANDARD
  9
$DIMAUNIT
 70
     0
  9
$LUNITS
 70
     2
  9
$LUPREC
 70
     3
  9
$SKETCHINC
 40
0.1
  9
$FILLETRAD
 40
0.5
  9
$AUNITS
 70
     0
  9
$AUPREC
 70
     0
  9
$MENU
  1
.
  9
$ELEVATION
 40
0.0
  9
$PELEVATION
 40
0.0
  9
$THICKNESS
 40
0.0
  9
$LIMCHECK
 70
     0
  9
$CHAMFERA
 40
0.0
  9
$CHAMFERB
 40
0.0
  9
$CHAMFERC
 40
0.0
  9
$CHAMFERD
 40
0.0
  9
$SKPOLY
 70
     0
  9
$TDCREATE
 40
2458106.941124479
  9
$TDUPDATE
 40
2458106.941125452
  9
$TDINDWG
 40
0.0000000116
  9
$TDUSRTIMER
 40
0.0000000116
  9
$USRTIMER
 70
     1
  9
$ANGBASE
 50
0.0
  9
$ANGDIR
 70
     0
  9
$PDMODE
 70
     0
  9
$PDSIZE
 40
0.0
  9
$PLINEWID
 40
0.0
  9
$COORDS
 70
     1
  9
$SPLFRAME
 70
     0
  9
$SPLINETYPE
 70
     6
  9
$SPLINESEGS
 70
     8
  9
$ATTDIA
 70
     0
  9
$ATTREQ
 70
     1
  9
$HANDLING
 70
     1
  9
$HANDSEED
  5
3CB
  9
$SURFTAB1
 70
     6
  9
$SURFTAB2
 70
     6
  9
$SURFTYPE
 70
     6
  9
$SURFU
 70
     6
  9
$SURFV
 70
     6
  9
$UCSNAME
  2

  9
$UCSORG
 10
0.0
 20
0.0
 30
0.0
  9
$UCSXDIR
 10
1.0
 20
0.0
 30
0.0
  9
$UCSYDIR
 10
0.0
 20
1.0
 30
0.0
  9
$PUCSNAME
  2

  9
$PUCSORG
 10
0.0
 20
0.0
 30
0.0
  9
$PUCSXDIR
 10
1.0
 20
0.0
 30
0.0
  9
$PUCSYDIR
 10
0.0
 20
1.0
 30
0.0
  9
$USERI1
 70
     0
  9
$USERI2
 70
     0
  9
$USERI3
 70
     0
  9
$USERI4
 70
     0
  9
$USERI5
 70
     0
  9
$USERR1
 40
0.0
  9
$USERR2
 40
0.0
  9
$USERR3
 40
0.0
  9
$USERR4
 40
0.0
  9
$USERR5
 40
0.0
  9
$WORLDVIEW
 70
     1
  9
$SHADEDGE
 70
     3
  9
$SHADEDIF
 70
    70
  9
$TILEMODE
 70
     1
  9
$MAXACTVP
 70
    64
  9
$PINSBASE
 10
0.0
 20
0.0
 30
0.0
  9
$PLIMCHECK
 70
     0
  9
$PEXTMIN
 10
1.000000000000000E+20
 20
1.000000000000000E+20
 30
1.000000000000000E+20
  9
$PEXTMAX
 10
-1.000000000000000E+20
 20
-1.000000000000000E+20
 30
-1.000000000000000E+20
  9
$PLIMMIN
 10
0.0
 20
0.0
  9
$PLIMMAX
 10
12.0
 20
9.0
  9
$UNITMODE
 70
     0
  9
$VISRETAIN
 70
     1
  9
$PLINEGEN
 70
     0
  9
$PSLTSCALE
 70
     1
  9
$TREEDEPTH
 70
  3020
  9
$PICKSTYLE
 70
     1
  9
$CMLSTYLE
  2
STANDARD
  9
$CMLJUST
 70
     0
  9
$CMLSCALE
 40
1.0
  9
$PROXYGRAPHICS
 70
     1
  9
$MEASUREMENT
 70
     0
  0
ENDSEC
  0
SECTION
  2
CLASSES
  0
CLASS
  1
ACDBDICTIONARYWDFLT
  2
AcDbDictionaryWithDefault
  3
ObjectDBX Classes
 90
        0
280
     0
281
     0
  0
CLASS
  1
VISUALSTYLE
  2
AcDbVisualStyle
  3
ObjectDBX Classes
 90
     4095
280
     0
281
     0
  0
CLASS
  1
MATERIAL
  2
AcDbMaterial
  3
ObjectDBX Classes
 90
     1153
280
     0
281
     0
  0
CLASS
  1
SCALE
  2
AcDbScale
  3
ObjectDBX Classes
 90
     1153
280
     0
281
     0
  0
CLASS
  1
TABLESTYLE
  2
AcDbTableStyle
  3
ObjectDBX Classes
 90
     4095
280
     0
281
     0
  0
CLASS
  1
MLEADERSTYLE
  2
AcDbMLeaderStyle
  3
ACDB_MLEADERSTYLE_CLASS
 90
     4095
280
     0
281
     0
  0
CLASS
  1
SUN
  2
AcDbSun
  3
SCENEOE
 90
     1153
280
     0
281
     0
  0
CLASS
  1
DICTIONARYVAR
  2
AcDbDictionaryVar
  3
ObjectDBX Classes
 90
        0
280
     0
281
     0
  0
CLASS
  1
XRECORD
  2
AcDbXrecord
  3
ObjectDBX Classes
 90
        0
280
     0
281
     0
  0
CLASS
  1
LWPOLYLINE
  2
AcDbPolyline
  3
ObjectDBX Classes
 90
        0
280
     0
281
     1
  0
CLASS
  1
HATCH
  2
AcDbHatch
  3
ObjectDBX Classes
 90
        0
280
     0
281
     1
  0
CLASS
  1
ACDBPLACEHOLDER
  2
AcDbPlaceHolder
  3
ObjectDBX Classes
 90
        0
280
     0
281
     0
  0
CLASS
  1
LAYOUT
  2
AcDbLayout
  3
ObjectDBX Classes
 90
        0
280
     0
281
     0
  0
ENDSEC
  0
SECTION
  2
TABLES
  0
TABLE
  2
VPORT
  5
8
102
{ACAD_XDICTIONARY
360
3C0
102
}
330
0
100
AcDbSymbolTable
 70
     1
  0
VPORT
  5
29
330
8
100
AcDbSymbolTableRecord
100
AcDbViewportTableRecord
  2
*ACTIVE
 70
     0
 10
0.0
 20
0.0
 11
1.0
 21
1.0
 12
-733.5394833259036
 22
836.3942938999357
 13
0.0
 23
0.0
 14
0.5
 24
0.5
 15
0.5
 25
0.5
 16
0.0
 26
0.0
 36
1.0
 17
0.0
 27
0.0
 37
0.0
 40
51.35732102516801
 41
1.671224843639336
 42
50.0
 43
0.0
 44
0.0
 50
0.0
 51
0.0
 71
     0
 72
   100
 73
     1
 74
     3
 75
     0
 76
     0
 77
     0
 78
     0
  0
ENDTAB
  0
TABLE
  2
LTYPE
  5
5
330
0
100
AcDbSymbolTable
 70
     1
  0
LTYPE
  5
14
330
5
100
AcDbSymbolTableRecord
100
AcDbLinetypeTableRecord
  2
BYBLOCK
 70
     0
  3

 72
    65
 73
     0
 40
0.0
  0
LTYPE
  5
15
330
5
100
AcDbSymbolTableRecord
100
AcDbLinetypeTableRecord
  2
BYLAYER
 70
     0
  3

 72
    65
 73
     0
 40
0.0
  0
LTYPE
  5
16
330
5
100
AcDbSymbolTableRecord
100
AcDbLinetypeTableRecord
  2
CONTINUOUS
 70
     0
  3
Solid line
 72
    65
 73
     0
 40
0.0
  0
ENDTAB
  0
TABLE
  2
LAYER
  5
2
330
0
100
AcDbSymbolTable
 70
     3
  0
LAYER
  5
10
330
2
100
AcDbSymbolTableRecord
100
AcDbLayerTableRecord
  2
0
 70
     0
 62
     7
  6
CONTINUOUS
  0
LAYER
  5
6E
330
2
100
AcDbSymbolTableRecord
100
AcDbLayerTableRecord
  2
STANDARD
 70
     0
 62
    18
  6
CONTINUOUS
  0
LAYER
  5
1E5
330
2
100
AcDbSymbolTableRecord
100
AcDbLayerTableRecord
  2
AUFSPANNFLAECHE_ANLAGE
 70
     0
 62
    70
  6
CONTINUOUS
  0
ENDTAB
  0
TABLE
  2
STYLE
  5
3
330
0
100
AcDbSymbolTable
 70
     1
  0
STYLE
  5
11
330
3
100
AcDbSymbolTableRecord
100
AcDbTextStyleTableRecord
  2
STANDARD
 70
     0
 40
0.0
 41
1.0
 50
0.0
 71
     0
 42
0.2
  3
txt
  4

  0
ENDTAB
  0
TABLE
  2
VIEW
  5
6
330
0
100
AcDbSymbolTable
 70
     0
  0
ENDTAB
  0
TABLE
  2
UCS
  5
7
330
0
100
AcDbSymbolTable
 70
     0
  0
ENDTAB
  0
TABLE
  2
APPID
  5
9
330
0
100
AcDbSymbolTable
 70
     2
  0
APPID
  5
12
330
9
100
AcDbSymbolTableRecord
100
AcDbRegAppTableRecord
  2
ACAD
 70
     0
  0
APPID
  5
3CA
330
9
100
AcDbSymbolTableRecord
100
AcDbRegAppTableRecord
  2
ACAD_MLEADERVER
 70
     0
  0
ENDTAB
  0
TABLE
  2
DIMSTYLE
  5
A
330
0
100
AcDbSymbolTable
 70
     1
  0
DIMSTYLE
105
27
330
A
100
AcDbSymbolTableRecord
100
AcDbDimStyleTableRecord
  2
STANDARD
 70
     0
  3

  4

  5

  6

  7

 40
1.0
 41
0.18
 42
0.0625
 43
0.38
 44
0.18
 45
0.0
 46
0.0
 47
0.0
 48
0.0
140
0.18
141
0.09
142
0.0
143
25.4
144
1.0
145
0.0
146
1.0
147
0.09
 71
     0
 72
     0
 73
     1
 74
     1
 75
     0
 76
     0
 77
     0
 78
     0
170
     0
171
     2
172
     0
173
     0
174
     0
175
     0
176
     0
177
     0
178
     0
270
     2
271
     4
272
     4
273
     2
274
     2
340
11
275
     0
280
     0
281
     0
282
     0
283
     1
284
     0
285
     0
286
     0
287
     3
288
     0
  0
ENDTAB
  0
TABLE
  2
BLOCK_RECORD
  5
1
330
0
100
AcDbSymbolTable
 70
     1
  0
BLOCK_RECORD
  5
1F
330
1
100
AcDbSymbolTableRecord
100
AcDbBlockTableRecord
  2
*MODEL_SPACE
  0
BLOCK_RECORD
  5
1B
330
1
100
AcDbSymbolTableRecord
100
AcDbBlockTableRecord
  2
*PAPER_SPACE
  0
ENDTAB
  0
ENDSEC
  0
SECTION
  2
BLOCKS
  0
BLOCK
  5
20
330
1F
100
AcDbEntity
  8
0
100
AcDbBlockBegin
  2
*MODEL_SPACE
 70
     0
 10
0.0
 20
0.0
 30
0.0
  3
*MODEL_SPACE
  1

  0
ENDBLK
  5
21
330
1F
100
AcDbEntity
  8
0
100
AcDbBlockEnd
  0
BLOCK
  5
1C
330
1B
100
AcDbEntity
 67
     1
  8
0
100
AcDbBlockBegin
  2
*PAPER_SPACE
 70
     0
 10
0.0
 20
0.0
 30
0.0
  3
*PAPER_SPACE
  1

  0
ENDBLK
  5
1D
330
1B
100
AcDbEntity
 67
     1
  8
0
100
AcDbBlockEnd
  0
ENDSEC
  0
SECTION
  2
ENTITIES
  0
MTEXT
  5
6F
330
1F
100
AcDbEntity
  8
STANDARD
100
AcDbMText
 10
-708.5125381179563
 20
816.0797829132406
 30
0.0
 40
1.127800076479913
 41
1.915901334742986
 71
     7
 72
     1
  1
\fArial;4
1001
ACAD
1000
MTEXTBEGIN
1070
    73
1070
     2
1070
    44
1040
0.9638554216867471
1000
MTEXTEND
1000
ACAD_MTEXT_DEFINED_HEIGHT_BEGIN
1070
    46
1040
1.127800076479913
1000
ACAD_MTEXT_DEFINED_HEIGHT_END
  0
MTEXT
  5
70
330
1F
100
AcDbEntity
  8
STANDARD
100
AcDbMText
 10
-771.5125381179563
 20
811.1769294711892
 30
0.0
 40
1.127800076479913
 41
3.967682196772708
 71
     7
 72
     1
  1
\fArial;3(A)
1001
ACAD
1000
MTEXTBEGIN
1070
    73
1070
     2
1070
    44
1040
0.9638554216867471
1000
MTEXTEND
1000
ACAD_MTEXT_DEFINED_HEIGHT_BEGIN
1070
    46
1040
1.467498894696755
1000
ACAD_MTEXT_DEFINED_HEIGHT_END
  0
MTEXT
  5
71
330
1F
100
AcDbEntity
  8
STANDARD
100
AcDbMText
 10
-750.5125381179563
 20
811.1769294711892
 30
0.0
 40
1.127800076479913
 41
3.899742433129339
 71
     7
 72
     1
  1
\fArial;2(Z)
1001
ACAD
1000
MTEXTBEGIN
1070
    73
1070
     2
1070
    44
1040
0.9638554216867471
1000
MTEXTEND
1000
ACAD_MTEXT_DEFINED_HEIGHT_BEGIN
1070
    46
1040
1.467498894696755
1000
ACAD_MTEXT_DEFINED_HEIGHT_END
  0
MTEXT
  5
72
330
1F
100
AcDbEntity
  8
STANDARD
100
AcDbMText
 10
-729.5125381179563
 20
811.1769294711892
 30
0.0
 40
1.127800076479913
 41
3.865772551307655
 71
     7
 72
     1
  1
\fArial;1(Y)
1001
ACAD
1000
MTEXTBEGIN
1070
    73
1070
     2
1070
    44
1040
0.9638554216867471
1000
MTEXTEND
1000
ACAD_MTEXT_DEFINED_HEIGHT_BEGIN
1070
    46
1040
1.467498894696755
1000
ACAD_MTEXT_DEFINED_HEIGHT_END
  0
MTEXT
  5
73
330
1F
100
AcDbEntity
  8
STANDARD
100
AcDbMText
 10
-705.0125381179563
 20
811.1769294711892
 30
0.0
 40
1.127800076479913
 41
1.868343500192628
 71
     7
 72
     1
  1
\fArial;0
1001
ACAD
1000
MTEXTBEGIN
1070
    73
1070
     2
1070
    44
1040
0.9638554216867471
1000
MTEXTEND
1000
ACAD_MTEXT_DEFINED_HEIGHT_BEGIN
1070
    46
1040
1.154975981937261
1000
ACAD_MTEXT_DEFINED_HEIGHT_END
  0
MTEXT
  5
74
330
1F
100
AcDbEntity
  8
STANDARD
100
AcDbMText
 10
-708.5125381179563
 20
811.1769294711892
 30
0.0
 40
1.127800076479913
 41
3.967682196772708
 71
     7
 72
     1
  1
\fArial;0(X)
1001
ACAD
1000
MTEXTBEGIN
1070
    73
1070
     2
1070
    44
1040
0.9638554216867471
1000
MTEXTEND
1000
ACAD_MTEXT_DEFINED_HEIGHT_BEGIN
1070
    46
1040
1.467498894696755
1000
ACAD_MTEXT_DEFINED_HEIGHT_END
  0
MTEXT
  5
75
330
1F
100
AcDbEntity
  8
STANDARD
100
AcDbMText
 10
-694.934786073017
 20
844.359902723386
 30
0.0
 40
1.127800076479913
 41
4.45684849500496
 71
     7
 72
     1
  1
\fArial;GND
1001
ACAD
1000
MTEXTBEGIN
1070
    73
1070
     2
1070
    44
1040
0.9638554216867471
1000
MTEXTEND
1000
ACAD_MTEXT_DEFINED_HEIGHT_BEGIN
1070
    46
1040
1.168563934665934
1000
ACAD_MTEXT_DEFINED_HEIGHT_END
  0
MTEXT
  5
76
330
1F
100
AcDbEntity
  8
STANDARD
100
AcDbMText
 10
-698.434786073017
 20
844.359902723386
 30
0.0
 40
1.127800076479913
 41
3.539661685819487
 71
     7
 72
     1
  1
\fArial;vdc
1001
ACAD
1000
MTEXTBEGIN
1070
    73
1070
     2
1070
    44
1040
0.9638554216867471
1000
MTEXTEND
1000
ACAD_MTEXT_DEFINED_HEIGHT_BEGIN
1070
    46
1040
1.141388029208587
1000
ACAD_MTEXT_DEFINED_HEIGHT_END
  0
MTEXT
  5
77
330
1F
100
AcDbEntity
  8
STANDARD
100
AcDbMText
 10
-702.029374551627
 20
844.359902723386
 30
0.0
 40
1.127800076479913
 41
4.463642471369296
 71
     7
 72
     1
  1
\fArial;+10v
1001
ACAD
1000
MTEXTBEGIN
1070
    73
1070
     2
1070
    44
1040
0.9638554216867471
1000
MTEXTEND
1000
ACAD_MTEXT_DEFINED_HEIGHT_BEGIN
1070
    46
1040
1.154975981937261
1000
ACAD_MTEXT_DEFINED_HEIGHT_END
  0
MTEXT
  5
78
330
1F
100
AcDbEntity
  8
STANDARD
100
AcDbMText
 10
-712.529374551627
 20
844.359902723386
 30
0.0
 40
1.127800076479913
 41
4.511200305919654
 71
     7
 72
     1
  1
\fArial;ena+
1001
ACAD
1000
MTEXTBEGIN
1070
    73
1070
     2
1070
    44
1040
0.9638554216867471
1000
MTEXTEND
1000
ACAD_MTEXT_DEFINED_HEIGHT_BEGIN
1070
    46
1040
0.9375687382784823
1000
ACAD_MTEXT_DEFINED_HEIGHT_END
  0
MTEXT
  5
79
330
1F
100
AcDbEntity
  8
STANDARD
100
AcDbMText
 10
-730.029374551627
 20
839.524621208211
 30
0.0
 40
1.127800076479913
 41
2.534153183897637
 71
     7
 72
     1
  1
\fArial;B-
1001
ACAD
1000
MTEXTBEGIN
1070
    73
1070
     2
1070
    44
1040
0.9638554216867471
1000
MTEXTEND
1000
ACAD_MTEXT_DEFINED_HEIGHT_BEGIN
1070
    46
1040
1.127800076479913
1000
ACAD_MTEXT_DEFINED_HEIGHT_END
  0
MTEXT
  5
7A
330
1F
100
AcDbEntity
  8
STANDARD
100
AcDbMText
 10
-726.529374551627
 20
839.524621208211
 30
0.0
 40
1.127800076479913
 41
2.880645978478815
 71
     7
 72
     1
  1
\fArial;B+
1001
ACAD
1000
MTEXTBEGIN
1070
    73
1070
     2
1070
    44
1040
0.9638554216867471
1000
MTEXTEND
1000
ACAD_MTEXT_DEFINED_HEIGHT_BEGIN
1070
    46
1040
1.127800076479913
1000
ACAD_MTEXT_DEFINED_HEIGHT_END
  0
MTEXT
  5
7B
330
1F
100
AcDbEntity
  8
STANDARD
100
AcDbMText
 10
-719.529374551627
 20
839.524621208211
 30
0.0
 40
1.127800076479913
 41
2.649650782091363
 71
     7
 72
     1
  1
\fArial;A-
1001
ACAD
1000
MTEXTBEGIN
1070
    73
1070
     2
1070
    44
1040
0.9638554216867471
1000
MTEXTEND
1000
ACAD_MTEXT_DEFINED_HEIGHT_BEGIN
1070
    46
1040
1.127800076479913
1000
ACAD_MTEXT_DEFINED_HEIGHT_END
  0
MTEXT
  5
7C
330
1F
100
AcDbEntity
  8
STANDARD
100
AcDbMText
 10
-716.029374551627
 20
839.524621208211
 30
0.0
 40
1.127800076479913
 41
2.996143576672541
 71
     7
 72
     1
  1
\fArial;A+
1001
ACAD
1000
MTEXTBEGIN
1070
    73
1070
     2
1070
    44
1040
0.9638554216867471
1000
MTEXTEND
1000
ACAD_MTEXT_DEFINED_HEIGHT_BEGIN
1070
    46
1040
1.127800076479913
1000
ACAD_MTEXT_DEFINED_HEIGHT_END
  0
MTEXT
  5
7D
330
1F
100
AcDbEntity
  8
STANDARD
100
AcDbMText
 10
-712.529374551627
 20
820.9150644284156
 30
0.0
 40
1.127800076479913
 41
4.511200305919654
 71
     7
 72
     1
  1
\fArial;ena+
1001
ACAD
1000
MTEXTBEGIN
1070
    73
1070
     2
1070
    44
1040
0.9638554216867471
1000
MTEXTEND
1000
ACAD_MTEXT_DEFINED_HEIGHT_BEGIN
1070
    46
1040
0.9375687382784823
1000
ACAD_MTEXT_DEFINED_HEIGHT_END
  0
MTEXT
  5
7E
330
1F
100
AcDbEntity
  8
STANDARD
100
AcDbMText
 10
-702.029374551627
 20
820.9150644284156
 30
0.0
 40
1.127800076479913
 41
4.463642471369296
 71
     7
 72
     1
  1
\fArial;+10v
1001
ACAD
1000
MTEXTBEGIN
1070
    73
1070
     2
1070
    44
1040
0.9638554216867471
1000
MTEXTEND
1000
ACAD_MTEXT_DEFINED_HEIGHT_BEGIN
1070
    46
1040
1.154975981937261
1000
ACAD_MTEXT_DEFINED_HEIGHT_END
  0
MTEXT
  5
7F
330
1F
100
AcDbEntity
  8
STANDARD
100
AcDbMText
 10
-698.434786073017
 20
820.9150644284156
 30
0.0
 40
1.127800076479913
 41
3.539661685819487
 71
     7
 72
     1
  1
\fArial;vdc
1001
ACAD
1000
MTEXTBEGIN
1070
    73
1070
     2
1070
    44
1040
0.9638554216867471
1000
MTEXTEND
1000
ACAD_MTEXT_DEFINED_HEIGHT_BEGIN
1070
    46
1040
1.141388029208587
1000
ACAD_MTEXT_DEFINED_HEIGHT_END
  0
MTEXT
  5
80
330
1F
100
AcDbEntity
  8
STANDARD
100
AcDbMText
 10
-694.934786073017
 20
820.9150644284156
 30
0.0
 40
1.127800076479913
 41
4.45684849500496
 71
     7
 72
     1
  1
\fArial;GND
1001
ACAD
1000
MTEXTBEGIN
1070
    73
1070
     2
1070
    44
1040
0.9638554216867471
1000
MTEXTEND
1000
ACAD_MTEXT_DEFINED_HEIGHT_BEGIN
1070
    46
1040
1.168563934665934
1000
ACAD_MTEXT_DEFINED_HEIGHT_END
  0
MTEXT
  5
81
330
1F
100
AcDbEntity
  8
STANDARD
100
AcDbMText
 10
-746.5990689710196
 20
848.7312629222846
 30
0.0
 40
1.127800076479913
 41
2.520565231168963
 71
     7
 72
     1
  1
\fArial;31
1001
ACAD
1000
MTEXTBEGIN
1070
    73
1070
     2
1070
    44
1040
0.9638554216867471
1000
MTEXTEND
1000
ACAD_MTEXT_DEFINED_HEIGHT_BEGIN
1070
    46
1040
1.154975981937261
1000
ACAD_MTEXT_DEFINED_HEIGHT_END
  0
MTEXT
  5
82
330
1F
100
AcDbEntity
  8
STANDARD
100
AcDbMText
 10
-743.0990689710196
 20
848.7312629222846
 30
0.0
 40
1.127800076479913
 41
2.737972474827742
 71
     7
 72
     1
  1
\fArial;30
1001
ACAD
1000
MTEXTBEGIN
1070
    73
1070
     2
1070
    44
1040
0.9638554216867471
1000
MTEXTEND
1000
ACAD_MTEXT_DEFINED_HEIGHT_BEGIN
1070
    46
1040
1.154975981937261
1000
ACAD_MTEXT_DEFINED_HEIGHT_END
  0
MTEXT
  5
83
330
1F
100
AcDbEntity
  8
STANDARD
100
AcDbMText
 10
-739.5990689710196
 20
848.7312629222846
 30
0.0
 40
1.127800076479913
 41
2.758354403920752
 71
     7
 72
     1
  1
\fArial;29
1001
ACAD
1000
MTEXTBEGIN
1070
    73
1070
     2
1070
    44
1040
0.9638554216867471
1000
MTEXTEND
1000
ACAD_MTEXT_DEFINED_HEIGHT_BEGIN
1070
    46
1040
1.154975981937261
1000
ACAD_MTEXT_DEFINED_HEIGHT_END
  0
MTEXT
  5
84
330
1F
100
AcDbEntity
  8
STANDARD
100
AcDbMText
 10
-736.0990689710196
 20
848.7312629222846
 30
0.0
 40
1.127800076479913
 41
2.751560427556416
 71
     7
 72
     1
  1
\fArial;28
1001
ACAD
1000
MTEXTBEGIN
1070
    73
1070
     2
1070
    44
1040
0.9638554216867471
1000
MTEXTEND
1000
ACAD_MTEXT_DEFINED_HEIGHT_BEGIN
1070
    46
1040
1.154975981937261
1000
ACAD_MTEXT_DEFINED_HEIGHT_END
  0
MTEXT
  5
85
330
1F
100
AcDbEntity
  8
STANDARD
100
AcDbMText
 10
-732.5990689710196
 20
848.7312629222846
 30
0.0
 40
1.127800076479913
 41
2.758354403920752
 71
     7
 72
     1
  1
\fArial;27
1001
ACAD
1000
MTEXTBEGIN
1070
    73
1070
     2
1070
    44
1040
0.9638554216867471
1000
MTEXTEND
1000
ACAD_MTEXT_DEFINED_HEIGHT_BEGIN
1070
    46
1040
1.13459405284425
1000
ACAD_MTEXT_DEFINED_HEIGHT_END
  0
MTEXT
  5
86
330
1F
100
AcDbEntity
  8
STANDARD
100
AcDbMText
 10
-729.0990689710196
 20
848.7312629222846
 30
0.0
 40
1.127800076479913
 41
2.758354403920752
 71
     7
 72
     1
  1
\fArial;26
1001
ACAD
1000
MTEXTBEGIN
1070
    73
1070
     2
1070
    44
1040
0.9638554216867471
1000
MTEXTEND
1000
ACAD_MTEXT_DEFINED_HEIGHT_BEGIN
1070
    46
1040
1.154975981937261
1000
ACAD_MTEXT_DEFINED_HEIGHT_END
  0
MTEXT
  5
87
330
1F
100
AcDbEntity
  8
STANDARD
100
AcDbMText
 10
-725.5990689710196
 20
848.7312629222846
 30
0.0
 40
1.127800076479913
 41
2.758354403920752
 71
     7
 72
     1
  1
\fArial;25
1001
ACAD
1000
MTEXTBEGIN
1070
    73
1070
     2
1070
    44
1040
0.9638554216867471
1000
MTEXTEND
1000
ACAD_MTEXT_DEFINED_HEIGHT_BEGIN
1070
    46
1040
1.154975981937261
1000
ACAD_MTEXT_DEFINED_HEIGHT_END
  0
MTEXT
  5
88
330
1F
100
AcDbEntity
  8
STANDARD
100
AcDbMText
 10
-722.0990689710196
 20
848.7312629222846
 30
0.0
 40
1.127800076479913
 41
2.758354403920752
 71
     7
 72
     1
  1
\fArial;24
1001
ACAD
1000
MTEXTBEGIN
1070
    73
1070
     2
1070
    44
1040
0.9638554216867471
1000
MTEXTEND
1000
ACAD_MTEXT_DEFINED_HEIGHT_BEGIN
1070
    46
1040
1.13459405284425
1000
ACAD_MTEXT_DEFINED_HEIGHT_END
  0
MTEXT
  5
89
330
1F
100
AcDbEntity
  8
STANDARD
100
AcDbMText
 10
-718.5990689710196
 20
848.7312629222846
 30
0.0
 40
1.127800076479913
 41
2.758354403920752
 71
     7
 72
     1
  1
\fArial;23
1001
ACAD
1000
MTEXTBEGIN
1070
    73
1070
     2
1070
    44
1040
0.9638554216867471
1000
MTEXTEND
1000
ACAD_MTEXT_DEFINED_HEIGHT_BEGIN
1070
    46
1040
1.154975981937261
1000
ACAD_MTEXT_DEFINED_HEIGHT_END
  0
MTEXT
  5
8A
330
1F
100
AcDbEntity
  8
STANDARD
100
AcDbMText
 10
-715.0990689710196
 20
848.7312629222846
 30
0.0
 40
1.127800076479913
 41
2.737972474827742
 71
     7
 72
     1
  1
\fArial;22
1001
ACAD
1000
MTEXTBEGIN
1070
    73
1070
     2
1070
    44
1040
0.9638554216867471
1000
MTEXTEND
1000
ACAD_MTEXT_DEFINED_HEIGHT_BEGIN
1070
    46
1040
1.13459405284425
1000
ACAD_MTEXT_DEFINED_HEIGHT_END
  0
MTEXT
  5
8B
330
1F
100
AcDbEntity
  8
STANDARD
100
AcDbMText
 10
-711.5990689710196
 20
848.7312629222846
 30
0.0
 40
1.127800076479913
 41
2.540947160261974
 71
     7
 72
     1
  1
\fArial;21
1001
ACAD
1000
MTEXTBEGIN
1070
    73
1070
     2
1070
    44
1040
0.9638554216867471
1000
MTEXTEND
1000
ACAD_MTEXT_DEFINED_HEIGHT_BEGIN
1070
    46
1040
1.13459405284425
1000
ACAD_MTEXT_DEFINED_HEIGHT_END
  0
MTEXT
  5
8C
330
1F
100
AcDbEntity
  8
STANDARD
100
AcDbMText
 10
-708.0990689710196
 20
848.7312629222846
 30
0.0
 40
1.127800076479913
 41
2.758354403920752
 71
     7
 72
     1
  1
\fArial;20
1001
ACAD
1000
MTEXTBEGIN
1070
    73
1070
     2
1070
    44
1040
0.9638554216867471
1000
MTEXTEND
1000
ACAD_MTEXT_DEFINED_HEIGHT_BEGIN
1070
    46
1040
1.154975981937261
1000
ACAD_MTEXT_DEFINED_HEIGHT_END
  0
MTEXT
  5
8D
330
1F
100
AcDbEntity
  8
STANDARD
100
AcDbMText
 10
-704.5990689710196
 20
848.7312629222846
 30
0.0
 40
1.127800076479913
 41
2.63606282936269
 71
     7
 72
     1
  1
\fArial;19
1001
ACAD
1000
MTEXTBEGIN
1070
    73
1070
     2
1070
    44
1040
0.9638554216867471
1000
MTEXTEND
1000
ACAD_MTEXT_DEFINED_HEIGHT_BEGIN
1070
    46
1040
1.154975981937261
1000
ACAD_MTEXT_DEFINED_HEIGHT_END
  0
MTEXT
  5
8E
330
1F
100
AcDbEntity
  8
STANDARD
100
AcDbMText
 10
-701.0990689710196
 20
848.7312629222846
 30
0.0
 40
1.127800076479913
 41
2.629268852998353
 71
     7
 72
     1
  1
\fArial;18
1001
ACAD
1000
MTEXTBEGIN
1070
    73
1070
     2
1070
    44
1040
0.9638554216867471
1000
MTEXTEND
1000
ACAD_MTEXT_DEFINED_HEIGHT_BEGIN
1070
    46
1040
1.154975981937261
1000
ACAD_MTEXT_DEFINED_HEIGHT_END
  0
MTEXT
  5
8F
330
1F
100
AcDbEntity
  8
STANDARD
100
AcDbMText
 10
-697.5990689710196
 20
848.7312629222846
 30
0.0
 40
1.127800076479913
 41
2.63606282936269
 71
     7
 72
     1
  1
\fArial;17
1001
ACAD
1000
MTEXTBEGIN
1070
    73
1070
     2
1070
    44
1040
0.9638554216867471
1000
MTEXTEND
1000
ACAD_MTEXT_DEFINED_HEIGHT_BEGIN
1070
    46
1040
1.13459405284425
1000
ACAD_MTEXT_DEFINED_HEIGHT_END
  0
MTEXT
  5
90
330
1F
100
AcDbEntity
  8
STANDARD
100
AcDbMText
 10
-694.0990689710196
 20
848.7312629222846
 30
0.0
 40
1.127800076479913
 41
2.63606282936269
 71
     7
 72
     1
  1
\fArial;16
1001
ACAD
1000
MTEXTBEGIN
1070
    73
1070
     2
1070
    44
1040
0.9638554216867471
1000
MTEXTEND
1000
ACAD_MTEXT_DEFINED_HEIGHT_BEGIN
1070
    46
1040
1.154975981937261
1000
ACAD_MTEXT_DEFINED_HEIGHT_END
  0
MTEXT
  5
91
330
1F
100
AcDbEntity
  8
STANDARD
100
AcDbMText
 10
-774.5990689710196
 20
848.7312629222846
 30
0.0
 40
1.127800076479913
 41
2.63606282936269
 71
     7
 72
     1
  1
\fArial;15
1001
ACAD
1000
MTEXTBEGIN
1070
    73
1070
     2
1070
    44
1040
0.9638554216867471
1000
MTEXTEND
1000
ACAD_MTEXT_DEFINED_HEIGHT_BEGIN
1070
    46
1040
1.154975981937261
1000
ACAD_MTEXT_DEFINED_HEIGHT_END
  0
MTEXT
  5
92
330
1F
100
AcDbEntity
  8
STANDARD
100
AcDbMText
 10
-771.0990689710196
 20
848.7312629222846
 30
0.0
 40
1.127800076479913
 41
2.63606282936269
 71
     7
 72
     1
  1
\fArial;14
1001
ACAD
1000
MTEXTBEGIN
1070
    73
1070
     2
1070
    44
1040
0.9638554216867471
1000
MTEXTEND
1000
ACAD_MTEXT_DEFINED_HEIGHT_BEGIN
1070
    46
1040
1.13459405284425
1000
ACAD_MTEXT_DEFINED_HEIGHT_END
  0
MTEXT
  5
93
330
1F
100
AcDbEntity
  8
STANDARD
100
AcDbMText
 10
-767.5990689710196
 20
848.7312629222846
 30
0.0
 40
1.127800076479913
 41
2.63606282936269
 71
     7
 72
     1
  1
\fArial;13
1001
ACAD
1000
MTEXTBEGIN
1070
    73
1070
     2
1070
    44
1040
0.9638554216867471
1000
MTEXTEND
1000
ACAD_MTEXT_DEFINED_HEIGHT_BEGIN
1070
    46
1040
1.154975981937261
1000
ACAD_MTEXT_DEFINED_HEIGHT_END
  0
MTEXT
  5
94
330
1F
100
AcDbEntity
  8
STANDARD
100
AcDbMText
 10
-764.0990689710196
 20
848.7312629222846
 30
0.0
 40
1.127800076479913
 41
2.615680900269679
 71
     7
 72
     1
  1
\fArial;12
1001
ACAD
1000
MTEXTBEGIN
1070
    73
1070
     2
1070
    44
1040
0.9638554216867471
1000
MTEXTEND
1000
ACAD_MTEXT_DEFINED_HEIGHT_BEGIN
1070
    46
1040
1.13459405284425
1000
ACAD_MTEXT_DEFINED_HEIGHT_END
  0
MTEXT
  5
95
330
1F
100
AcDbEntity
  8
STANDARD
100
AcDbMText
 10
-760.5990689710196
 20
848.7312629222846
 30
0.0
 40
1.127800076479913
 41
2.418655585703911
 71
     7
 72
     1
  1
\fArial;11
1001
ACAD
1000
MTEXTBEGIN
1070
    73
1070
     2
1070
    44
1040
0.9638554216867471
1000
MTEXTEND
1000
ACAD_MTEXT_DEFINED_HEIGHT_BEGIN
1070
    46
1040
1.13459405284425
1000
ACAD_MTEXT_DEFINED_HEIGHT_END
  0
MTEXT
  5
96
330
1F
100
AcDbEntity
  8
STANDARD
100
AcDbMText
 10
-757.0990689710196
 20
848.7312629222846
 30
0.0
 40
1.127800076479913
 41
2.63606282936269
 71
     7
 72
     1
  1
\fArial;10
1001
ACAD
1000
MTEXTBEGIN
1070
    73
1070
     2
1070
    44
1040
0.9638554216867471
1000
MTEXTEND
1000
ACAD_MTEXT_DEFINED_HEIGHT_BEGIN
1070
    46
1040
1.154975981937261
1000
ACAD_MTEXT_DEFINED_HEIGHT_END
  0
MTEXT
  5
97
330
1F
100
AcDbEntity
  8
STANDARD
100
AcDbMText
 10
-753.5990689710196
 20
848.7312629222846
 30
0.0
 40
1.127800076479913
 41
2.737972474827742
 71
     7
 72
     1
  1
\fArial;09
1001
ACAD
1000
MTEXTBEGIN
1070
    73
1070
     2
1070
    44
1040
0.9638554216867471
1000
MTEXTEND
1000
ACAD_MTEXT_DEFINED_HEIGHT_BEGIN
1070
    46
1040
1.154975981937261
1000
ACAD_MTEXT_DEFINED_HEIGHT_END
  0
MTEXT
  5
98
330
1F
100
AcDbEntity
  8
STANDARD
100
AcDbMText
 10
-750.0990689710196
 20
848.7312629222846
 30
0.0
 40
1.127800076479913
 41
2.731178498463405
 71
     7
 72
     1
  1
\fArial;08
1001
ACAD
1000
MTEXTBEGIN
1070
    73
1070
     2
1070
    44
1040
0.9638554216867471
1000
MTEXTEND
1000
ACAD_MTEXT_DEFINED_HEIGHT_BEGIN
1070
    46
1040
1.154975981937261
1000
ACAD_MTEXT_DEFINED_HEIGHT_END
  0
MTEXT
  5
99
330
1F
100
AcDbEntity
  8
STANDARD
100
AcDbMText
 10
-774.5990689710196
 20
853.1891870079681
 30
0.0
 40
1.127800076479913
 41
2.737972474827742
 71
     7
 72
     1
  1
\fArial;07
1001
ACAD
1000
MTEXTBEGIN
1070
    73
1070
     2
1070
    44
1040
0.9638554216867471
1000
MTEXTEND
1000
ACAD_MTEXT_DEFINED_HEIGHT_BEGIN
1070
    46
1040
1.154975981937261
1000
ACAD_MTEXT_DEFINED_HEIGHT_END
  0
MTEXT
  5
9A
330
1F
100
AcDbEntity
  8
STANDARD
100
AcDbMText
 10
-771.0990689710196
 20
853.1891870079681
 30
0.0
 40
1.127800076479913
 41
2.737972474827742
 71
     7
 72
     1
  1
\fArial;06
1001
ACAD
1000
MTEXTBEGIN
1070
    73
1070
     2
1070
    44
1040
0.9638554216867471
1000
MTEXTEND
1000
ACAD_MTEXT_DEFINED_HEIGHT_BEGIN
1070
    46
1040
1.154975981937261
1000
ACAD_MTEXT_DEFINED_HEIGHT_END
  0
MTEXT
  5
9B
330
1F
100
AcDbEntity
  8
STANDARD
100
AcDbMText
 10
-767.5990689710196
 20
853.1891870079681
 30
0.0
 40
1.127800076479913
 41
2.737972474827742
 71
     7
 72
     1
  1
\fArial;05
1001
ACAD
1000
MTEXTBEGIN
1070
    73
1070
     2
1070
    44
1040
0.9638554216867471
1000
MTEXTEND
1000
ACAD_MTEXT_DEFINED_HEIGHT_BEGIN
1070
    46
1040
1.154975981937261
1000
ACAD_MTEXT_DEFINED_HEIGHT_END
  0
MTEXT
  5
9C
330
1F
100
AcDbEntity
  8
STANDARD
100
AcDbMText
 10
-764.0990689710196
 20
853.1891870079681
 30
0.0
 40
1.127800076479913
 41
2.737972474827742
 71
     7
 72
     1
  1
\fArial;04
1001
ACAD
1000
MTEXTBEGIN
1070
    73
1070
     2
1070
    44
1040
0.9638554216867471
1000
MTEXTEND
1000
ACAD_MTEXT_DEFINED_HEIGHT_BEGIN
1070
    46
1040
1.154975981937261
1000
ACAD_MTEXT_DEFINED_HEIGHT_END
  0
MTEXT
  5
9D
330
1F
100
AcDbEntity
  8
STANDARD
100
AcDbMText
 10
-760.5990689710196
 20
853.1891870079681
 30
0.0
 40
1.127800076479913
 41
2.737972474827742
 71
     7
 72
     1
  1
\fArial;03
1001
ACAD
1000
MTEXTBEGIN
1070
    73
1070
     2
1070
    44
1040
0.9638554216867471
1000
MTEXTEND
1000
ACAD_MTEXT_DEFINED_HEIGHT_BEGIN
1070
    46
1040
1.154975981937261
1000
ACAD_MTEXT_DEFINED_HEIGHT_END
  0
MTEXT
  5
9E
330
1F
100
AcDbEntity
  8
STANDARD
100
AcDbMText
 10
-757.0990689710196
 20
853.1891870079681
 30
0.0
 40
1.127800076479913
 41
2.717590545734731
 71
     7
 72
     1
  1
\fArial;02
1001
ACAD
1000
MTEXTBEGIN
1070
    73
1070
     2
1070
    44
1040
0.9638554216867471
1000
MTEXTEND
1000
ACAD_MTEXT_DEFINED_HEIGHT_BEGIN
1070
    46
1040
1.154975981937261
1000
ACAD_MTEXT_DEFINED_HEIGHT_END
  0
MTEXT
  5
9F
330
1F
100
AcDbEntity
  8
STANDARD
100
AcDbMText
 10
-753.5990689710196
 20
853.1891870079681
 30
0.0
 40
1.127800076479913
 41
2.520565231168963
 71
     7
 72
     1
  1
\fArial;01
1001
ACAD
1000
MTEXTBEGIN
1070
    73
1070
     2
1070
    44
1040
0.9638554216867471
1000
MTEXTEND
1000
ACAD_MTEXT_DEFINED_HEIGHT_BEGIN
1070
    46
1040
1.154975981937261
1000
ACAD_MTEXT_DEFINED_HEIGHT_END
  0
MTEXT
  5
A0
330
1F
100
AcDbEntity
  8
STANDARD
100
AcDbMText
 10
-694.0990689710196
 20
853.1891870079681
 30
0.0
 40
1.127800076479913
 41
2.737972474827742
 71
     7
 72
     1
  1
\fArial;00
1001
ACAD
1000
MTEXTBEGIN
1070
    73
1070
     2
1070
    44
1040
0.9638554216867471
1000
MTEXTEND
1000
ACAD_MTEXT_DEFINED_HEIGHT_BEGIN
1070
    46
1040
1.154975981937261
1000
ACAD_MTEXT_DEFINED_HEIGHT_END
  0
MTEXT
  5
A1
330
1F
100
AcDbEntity
  8
STANDARD
100
AcDbMText
 10
-697.5990689710196
 20
853.1891870079681
 30
0.0
 40
1.127800076479913
 41
2.520565231168963
 71
     7
 72
     1
  1
\fArial;01
1001
ACAD
1000
MTEXTBEGIN
1070
    73
1070
     2
1070
    44
1040
0.9638554216867471
1000
MTEXTEND
1000
ACAD_MTEXT_DEFINED_HEIGHT_BEGIN
1070
    46
1040
1.154975981937261
1000
ACAD_MTEXT_DEFINED_HEIGHT_END
  0
MTEXT
  5
A2
330
1F
100
AcDbEntity
  8
STANDARD
100
AcDbMText
 10
-701.0990689710196
 20
853.1891870079681
 30
0.0
 40
1.127800076479913
 41
2.717590545734731
 71
     7
 72
     1
  1
\fArial;02
1001
ACAD
1000
MTEXTBEGIN
1070
    73
1070
     2
1070
    44
1040
0.9638554216867471
1000
MTEXTEND
1000
ACAD_MTEXT_DEFINED_HEIGHT_BEGIN
1070
    46
1040
1.154975981937261
1000
ACAD_MTEXT_DEFINED_HEIGHT_END
  0
MTEXT
  5
A3
330
1F
100
AcDbEntity
  8
STANDARD
100
AcDbMText
 10
-704.5990689710196
 20
853.1891870079681
 30
0.0
 40
1.127800076479913
 41
2.737972474827742
 71
     7
 72
     1
  1
\fArial;03
1001
ACAD
1000
MTEXTBEGIN
1070
    73
1070
     2
1070
    44
1040
0.9638554216867471
1000
MTEXTEND
1000
ACAD_MTEXT_DEFINED_HEIGHT_BEGIN
1070
    46
1040
1.154975981937261
1000
ACAD_MTEXT_DEFINED_HEIGHT_END
  0
MTEXT
  5
A4
330
1F
100
AcDbEntity
  8
STANDARD
100
AcDbMText
 10
-708.0990689710196
 20
853.1891870079681
 30
0.0
 40
1.127800076479913
 41
2.737972474827742
 71
     7
 72
     1
  1
\fArial;04
1001
ACAD
1000
MTEXTBEGIN
1070
    73
1070
     2
1070
    44
1040
0.9638554216867471
1000
MTEXTEND
1000
ACAD_MTEXT_DEFINED_HEIGHT_BEGIN
1070
    46
1040
1.154975981937261
1000
ACAD_MTEXT_DEFINED_HEIGHT_END
  0
MTEXT
  5
A5
330
1F
100
AcDbEntity
  8
STANDARD
100
AcDbMText
 10
-711.5990689710196
 20
853.1891870079681
 30
0.0
 40
1.127800076479913
 41
2.737972474827742
 71
     7
 72
     1
  1
\fArial;05
1001
ACAD
1000
MTEXTBEGIN
1070
    73
1070
     2
1070
    44
1040
0.9638554216867471
1000
MTEXTEND
1000
ACAD_MTEXT_DEFINED_HEIGHT_BEGIN
1070
    46
1040
1.154975981937261
1000
ACAD_MTEXT_DEFINED_HEIGHT_END
  0
MTEXT
  5
A6
330
1F
100
AcDbEntity
  8
STANDARD
100
AcDbMText
 10
-715.0990689710196
 20
853.1891870079681
 30
0.0
 40
1.127800076479913
 41
2.737972474827742
 71
     7
 72
     1
  1
\fArial;06
1001
ACAD
1000
MTEXTBEGIN
1070
    73
1070
     2
1070
    44
1040
0.9638554216867471
1000
MTEXTEND
1000
ACAD_MTEXT_DEFINED_HEIGHT_BEGIN
1070
    46
1040
1.154975981937261
1000
ACAD_MTEXT_DEFINED_HEIGHT_END
  0
MTEXT
  5
A7
330
1F
100
AcDbEntity
  8
STANDARD
100
AcDbMText
 10
-718.5990689710196
 20
853.1891870079681
 30
0.0
 40
1.127800076479913
 41
2.737972474827742
 71
     7
 72
     1
  1
\fArial;07
1001
ACAD
1000
MTEXTBEGIN
1070
    73
1070
     2
1070
    44
1040
0.9638554216867471
1000
MTEXTEND
1000
ACAD_MTEXT_DEFINED_HEIGHT_BEGIN
1070
    46
1040
1.154975981937261
1000
ACAD_MTEXT_DEFINED_HEIGHT_END
  0
MTEXT
  5
A8
330
1F
100
AcDbEntity
  8
STANDARD
100
AcDbMText
 10
-722.0990689710196
 20
853.1891870079681
 30
0.0
 40
1.127800076479913
 41
2.731178498463405
 71
     7
 72
     1
  1
\fArial;08
1001
ACAD
1000
MTEXTBEGIN
1070
    73
1070
     2
1070
    44
1040
0.9638554216867471
1000
MTEXTEND
1000
ACAD_MTEXT_DEFINED_HEIGHT_BEGIN
1070
    46
1040
1.154975981937261
1000
ACAD_MTEXT_DEFINED_HEIGHT_END
  0
MTEXT
  5
A9
330
1F
100
AcDbEntity
  8
STANDARD
100
AcDbMText
 10
-725.5990689710196
 20
853.1891870079681
 30
0.0
 40
1.127800076479913
 41
2.737972474827742
 71
     7
 72
     1
  1
\fArial;09
1001
ACAD
1000
MTEXTBEGIN
1070
    73
1070
     2
1070
    44
1040
0.9638554216867471
1000
MTEXTEND
1000
ACAD_MTEXT_DEFINED_HEIGHT_BEGIN
1070
    46
1040
1.154975981937261
1000
ACAD_MTEXT_DEFINED_HEIGHT_END
  0
MTEXT
  5
AA
330
1F
100
AcDbEntity
  8
STANDARD
100
AcDbMText
 10
-729.0990689710196
 20
853.1891870079681
 30
0.0
 40
1.127800076479913
 41
2.63606282936269
 71
     7
 72
     1
  1
\fArial;10
1001
ACAD
1000
MTEXTBEGIN
1070
    73
1070
     2
1070
    44
1040
0.9638554216867471
1000
MTEXTEND
1000
ACAD_MTEXT_DEFINED_HEIGHT_BEGIN
1070
    46
1040
1.154975981937261
1000
ACAD_MTEXT_DEFINED_HEIGHT_END
  0
MTEXT
  5
AB
330
1F
100
AcDbEntity
  8
STANDARD
100
AcDbMText
 10
-732.5990689710196
 20
853.1891870079681
 30
0.0
 40
1.127800076479913
 41
2.418655585703911
 71
     7
 72
     1
  1
\fArial;11
1001
ACAD
1000
MTEXTBEGIN
1070
    73
1070
     2
1070
    44
1040
0.9638554216867471
1000
MTEXTEND
1000
ACAD_MTEXT_DEFINED_HEIGHT_BEGIN
1070
    46
1040
1.13459405284425
1000
ACAD_MTEXT_DEFINED_HEIGHT_END
  0
MTEXT
  5
AC
330
1F
100
AcDbEntity
  8
STANDARD
100
AcDbMText
 10
-736.0990689710196
 20
853.1891870079681
 30
0.0
 40
1.127800076479913
 41
2.615680900269679
 71
     7
 72
     1
  1
\fArial;12
1001
ACAD
1000
MTEXTBEGIN
1070
    73
1070
     2
1070
    44
1040
0.9638554216867471
1000
MTEXTEND
1000
ACAD_MTEXT_DEFINED_HEIGHT_BEGIN
1070
    46
1040
1.13459405284425
1000
ACAD_MTEXT_DEFINED_HEIGHT_END
  0
MTEXT
  5
AD
330
1F
100
AcDbEntity
  8
STANDARD
100
AcDbMText
 10
-739.5990689710196
 20
853.1891870079681
 30
0.0
 40
1.127800076479913
 41
2.63606282936269
 71
     7
 72
     1
  1
\fArial;13
1001
ACAD
1000
MTEXTBEGIN
1070
    73
1070
     2
1070
    44
1040
0.9638554216867471
1000
MTEXTEND
1000
ACAD_MTEXT_DEFINED_HEIGHT_BEGIN
1070
    46
1040
1.154975981937261
1000
ACAD_MTEXT_DEFINED_HEIGHT_END
  0
MTEXT
  5
AE
330
1F
100
AcDbEntity
  8
STANDARD
100
AcDbMText
 10
-743.0990689710196
 20
853.1891870079681
 30
0.0
 40
1.127800076479913
 41
2.63606282936269
 71
     7
 72
     1
  1
\fArial;14
1001
ACAD
1000
MTEXTBEGIN
1070
    73
1070
     2
1070
    44
1040
0.9638554216867471
1000
MTEXTEND
1000
ACAD_MTEXT_DEFINED_HEIGHT_BEGIN
1070
    46
1040
1.13459405284425
1000
ACAD_MTEXT_DEFINED_HEIGHT_END
  0
MTEXT
  5
AF
330
1F
100
AcDbEntity
  8
STANDARD
100
AcDbMText
 10
-746.5990689710196
 20
853.1891870079681
 30
0.0
 40
1.127800076479913
 41
2.63606282936269
 71
     7
 72
     1
  1
\fArial;15
1001
ACAD
1000
MTEXTBEGIN
1070
    73
1070
     2
1070
    44
1040
0.9638554216867471
1000
MTEXTEND
1000
ACAD_MTEXT_DEFINED_HEIGHT_BEGIN
1070
    46
1040
1.154975981937261
1000
ACAD_MTEXT_DEFINED_HEIGHT_END
  0
MTEXT
  5
B0
330
1F
100
AcDbEntity
  8
STANDARD
100
AcDbMText
 10
-750.0990689710196
 20
853.1891870079681
 30
0.0
 40
1.127800076479913
 41
2.737972474827742
 71
     7
 72
     1
  1
\fArial;00
1001
ACAD
1000
MTEXTBEGIN
1070
    73
1070
     2
1070
    44
1040
0.9638554216867471
1000
MTEXTEND
1000
ACAD_MTEXT_DEFINED_HEIGHT_BEGIN
1070
    46
1040
1.154975981937261
1000
ACAD_MTEXT_DEFINED_HEIGHT_END
  0
MTEXT
  5
B1
330
1F
100
AcDbEntity
  8
STANDARD
100
AcDbMText
 10
-750.0990689710196
 20
829.7443487129977
 30
0.0
 40
1.127800076479913
 41
2.737972474827742
 71
     7
 72
     1
  1
\fArial;00
1001
ACAD
1000
MTEXTBEGIN
1070
    73
1070
     2
1070
    44
1040
0.9638554216867471
1000
MTEXTEND
1000
ACAD_MTEXT_DEFINED_HEIGHT_BEGIN
1070
    46
1040
1.154975981937261
1000
ACAD_MTEXT_DEFINED_HEIGHT_END
  0
MTEXT
  5
B2
330
1F
100
AcDbEntity
  8
STANDARD
100
AcDbMText
 10
-746.5990689710196
 20
829.7443487129977
 30
0.0
 40
1.127800076479913
 41
2.63606282936269
 71
     7
 72
     1
  1
\fArial;15
1001
ACAD
1000
MTEXTBEGIN
1070
    73
1070
     2
1070
    44
1040
0.9638554216867471
1000
MTEXTEND
1000
ACAD_MTEXT_DEFINED_HEIGHT_BEGIN
1070
    46
1040
1.154975981937261
1000
ACAD_MTEXT_DEFINED_HEIGHT_END
  0
MTEXT
  5
B3
330
1F
100
AcDbEntity
  8
STANDARD
100
AcDbMText
 10
-743.0990689710196
 20
829.7443487129977
 30
0.0
 40
1.127800076479913
 41
2.63606282936269
 71
     7
 72
     1
  1
\fArial;14
1001
ACAD
1000
MTEXTBEGIN
1070
    73
1070
     2
1070
    44
1040
0.9638554216867471
1000
MTEXTEND
1000
ACAD_MTEXT_DEFINED_HEIGHT_BEGIN
1070
    46
1040
1.13459405284425
1000
ACAD_MTEXT_DEFINED_HEIGHT_END
  0
MTEXT
  5
B4
330
1F
100
AcDbEntity
  8
STANDARD
100
AcDbMText
 10
-739.5990689710196
 20
829.7443487129977
 30
0.0
 40
1.127800076479913
 41
2.63606282936269
 71
     7
 72
     1
  1
\fArial;13
1001
ACAD
1000
MTEXTBEGIN
1070
    73
1070
     2
1070
    44
1040
0.9638554216867471
1000
MTEXTEND
1000
ACAD_MTEXT_DEFINED_HEIGHT_BEGIN
1070
    46
1040
1.154975981937261
1000
ACAD_MTEXT_DEFINED_HEIGHT_END
  0
MTEXT
  5
B5
330
1F
100
AcDbEntity
  8
STANDARD
100
AcDbMText
 10
-736.0990689710196
 20
829.7443487129977
 30
0.0
 40
1.127800076479913
 41
2.615680900269679
 71
     7
 72
     1
  1
\fArial;12
1001
ACAD
1000
MTEXTBEGIN
1070
    73
1070
     2
1070
    44
1040
0.9638554216867471
1000
MTEXTEND
1000
ACAD_MTEXT_DEFINED_HEIGHT_BEGIN
1070
    46
1040
1.13459405284425
1000
ACAD_MTEXT_DEFINED_HEIGHT_END
  0
MTEXT
  5
B6
330
1F
100
AcDbEntity
  8
STANDARD
100
AcDbMText
 10
-732.5990689710196
 20
829.7443487129977
 30
0.0
 40
1.127800076479913
 41
2.418655585703911
 71
     7
 72
     1
  1
\fArial;11
1001
ACAD
1000
MTEXTBEGIN
1070
    73
1070
     2
1070
    44
1040
0.9638554216867471
1000
MTEXTEND
1000
ACAD_MTEXT_DEFINED_HEIGHT_BEGIN
1070
    46
1040
1.13459405284425
1000
ACAD_MTEXT_DEFINED_HEIGHT_END
  0
MTEXT
  5
B7
330
1F
100
AcDbEntity
  8
STANDARD
100
AcDbMText
 10
-729.0990689710196
 20
829.7443487129977
 30
0.0
 40
1.127800076479913
 41
2.63606282936269
 71
     7
 72
     1
  1
\fArial;10
1001
ACAD
1000
MTEXTBEGIN
1070
    73
1070
     2
1070
    44
1040
0.9638554216867471
1000
MTEXTEND
1000
ACAD_MTEXT_DEFINED_HEIGHT_BEGIN
1070
    46
1040
1.154975981937261
1000
ACAD_MTEXT_DEFINED_HEIGHT_END
  0
MTEXT
  5
B8
330
1F
100
AcDbEntity
  8
STANDARD
100
AcDbMText
 10
-725.5990689710196
 20
829.7443487129977
 30
0.0
 40
1.127800076479913
 41
2.737972474827742
 71
     7
 72
     1
  1
\fArial;09
1001
ACAD
1000
MTEXTBEGIN
1070
    73
1070
     2
1070
    44
1040
0.9638554216867471
1000
MTEXTEND
1000
ACAD_MTEXT_DEFINED_HEIGHT_BEGIN
1070
    46
1040
1.154975981937261
1000
ACAD_MTEXT_DEFINED_HEIGHT_END
  0
MTEXT
  5
B9
330
1F
100
AcDbEntity
  8
STANDARD
100
AcDbMText
 10
-722.0990689710196
 20
829.7443487129977
 30
0.0
 40
1.127800076479913
 41
2.731178498463405
 71
     7
 72
     1
  1
\fArial;08
1001
ACAD
1000
MTEXTBEGIN
1070
    73
1070
     2
1070
    44
1040
0.9638554216867471
1000
MTEXTEND
1000
ACAD_MTEXT_DEFINED_HEIGHT_BEGIN
1070
    46
1040
1.154975981937261
1000
ACAD_MTEXT_DEFINED_HEIGHT_END
  0
MTEXT
  5
BA
330
1F
100
AcDbEntity
  8
STANDARD
100
AcDbMText
 10
-718.5990689710196
 20
829.7443487129977
 30
0.0
 40
1.127800076479913
 41
2.737972474827742
 71
     7
 72
     1
  1
\fArial;07
1001
ACAD
1000
MTEXTBEGIN
1070
    73
1070
     2
1070
    44
1040
0.9638554216867471
1000
MTEXTEND
1000
ACAD_MTEXT_DEFINED_HEIGHT_BEGIN
1070
    46
1040
1.154975981937261
1000
ACAD_MTEXT_DEFINED_HEIGHT_END
  0
MTEXT
  5
BB
330
1F
100
AcDbEntity
  8
STANDARD
100
AcDbMText
 10
-715.0990689710196
 20
829.7443487129977
 30
0.0
 40
1.127800076479913
 41
2.737972474827742
 71
     7
 72
     1
  1
\fArial;06
1001
ACAD
1000
MTEXTBEGIN
1070
    73
1070
     2
1070
    44
1040
0.9638554216867471
1000
MTEXTEND
1000
ACAD_MTEXT_DEFINED_HEIGHT_BEGIN
1070
    46
1040
1.154975981937261
1000
ACAD_MTEXT_DEFINED_HEIGHT_END
  0
MTEXT
  5
BC
330
1F
100
AcDbEntity
  8
STANDARD
100
AcDbMText
 10
-711.5990689710196
 20
829.7443487129977
 30
0.0
 40
1.127800076479913
 41
2.737972474827742
 71
     7
 72
     1
  1
\fArial;05
1001
ACAD
1000
MTEXTBEGIN
1070
    73
1070
     2
1070
    44
1040
0.9638554216867471
1000
MTEXTEND
1000
ACAD_MTEXT_DEFINED_HEIGHT_BEGIN
1070
    46
1040
1.154975981937261
1000
ACAD_MTEXT_DEFINED_HEIGHT_END
  0
MTEXT
  5
BD
330
1F
100
AcDbEntity
  8
STANDARD
100
AcDbMText
 10
-708.0990689710196
 20
829.7443487129977
 30
0.0
 40
1.127800076479913
 41
2.737972474827742
 71
     7
 72
     1
  1
\fArial;04
1001
ACAD
1000
MTEXTBEGIN
1070
    73
1070
     2
1070
    44
1040
0.9638554216867471
1000
MTEXTEND
1000
ACAD_MTEXT_DEFINED_HEIGHT_BEGIN
1070
    46
1040
1.154975981937261
1000
ACAD_MTEXT_DEFINED_HEIGHT_END
  0
MTEXT
  5
BE
330
1F
100
AcDbEntity
  8
STANDARD
100
AcDbMText
 10
-704.5990689710196
 20
829.7443487129977
 30
0.0
 40
1.127800076479913
 41
2.737972474827742
 71
     7
 72
     1
  1
\fArial;03
1001
ACAD
1000
MTEXTBEGIN
1070
    73
1070
     2
1070
    44
1040
0.9638554216867471
1000
MTEXTEND
1000
ACAD_MTEXT_DEFINED_HEIGHT_BEGIN
1070
    46
1040
1.154975981937261
1000
ACAD_MTEXT_DEFINED_HEIGHT_END
  0
MTEXT
  5
BF
330
1F
100
AcDbEntity
  8
STANDARD
100
AcDbMText
 10
-701.0990689710196
 20
829.7443487129977
 30
0.0
 40
1.127800076479913
 41
2.717590545734731
 71
     7
 72
     1
  1
\fArial;02
1001
ACAD
1000
MTEXTBEGIN
1070
    73
1070
     2
1070
    44
1040
0.9638554216867471
1000
MTEXTEND
1000
ACAD_MTEXT_DEFINED_HEIGHT_BEGIN
1070
    46
1040
1.154975981937261
1000
ACAD_MTEXT_DEFINED_HEIGHT_END
  0
MTEXT
  5
C0
330
1F
100
AcDbEntity
  8
STANDARD
100
AcDbMText
 10
-697.5990689710196
 20
829.7443487129977
 30
0.0
 40
1.127800076479913
 41
2.520565231168963
 71
     7
 72
     1
  1
\fArial;01
1001
ACAD
1000
MTEXTBEGIN
1070
    73
1070
     2
1070
    44
1040
0.9638554216867471
1000
MTEXTEND
1000
ACAD_MTEXT_DEFINED_HEIGHT_BEGIN
1070
    46
1040
1.154975981937261
1000
ACAD_MTEXT_DEFINED_HEIGHT_END
  0
MTEXT
  5
C1
330
1F
100
AcDbEntity
  8
STANDARD
100
AcDbMText
 10
-694.0990689710196
 20
829.7443487129977
 30
0.0
 40
1.127800076479913
 41
2.737972474827742
 71
     7
 72
     1
  1
\fArial;00
1001
ACAD
1000
MTEXTBEGIN
1070
    73
1070
     2
1070
    44
1040
0.9638554216867471
1000
MTEXTEND
1000
ACAD_MTEXT_DEFINED_HEIGHT_BEGIN
1070
    46
1040
1.154975981937261
1000
ACAD_MTEXT_DEFINED_HEIGHT_END
  0
MTEXT
  5
C2
330
1F
100
AcDbEntity
  8
STANDARD
100
AcDbMText
 10
-753.5990689710196
 20
829.7443487129977
 30
0.0
 40
1.127800076479913
 41
2.520565231168963
 71
     7
 72
     1
  1
\fArial;01
1001
ACAD
1000
MTEXTBEGIN
1070
    73
1070
     2
1070
    44
1040
0.9638554216867471
1000
MTEXTEND
1000
ACAD_MTEXT_DEFINED_HEIGHT_BEGIN
1070
    46
1040
1.154975981937261
1000
ACAD_MTEXT_DEFINED_HEIGHT_END
  0
MTEXT
  5
C3
330
1F
100
AcDbEntity
  8
STANDARD
100
AcDbMText
 10
-757.0990689710196
 20
829.7443487129977
 30
0.0
 40
1.127800076479913
 41
2.717590545734731
 71
     7
 72
     1
  1
\fArial;02
1001
ACAD
1000
MTEXTBEGIN
1070
    73
1070
     2
1070
    44
1040
0.9638554216867471
1000
MTEXTEND
1000
ACAD_MTEXT_DEFINED_HEIGHT_BEGIN
1070
    46
1040
1.154975981937261
1000
ACAD_MTEXT_DEFINED_HEIGHT_END
  0
MTEXT
  5
C4
330
1F
100
AcDbEntity
  8
STANDARD
100
AcDbMText
 10
-760.5990689710196
 20
829.7443487129977
 30
0.0
 40
1.127800076479913
 41
2.737972474827742
 71
     7
 72
     1
  1
\fArial;03
1001
ACAD
1000
MTEXTBEGIN
1070
    73
1070
     2
1070
    44
1040
0.9638554216867471
1000
MTEXTEND
1000
ACAD_MTEXT_DEFINED_HEIGHT_BEGIN
1070
    46
1040
1.154975981937261
1000
ACAD_MTEXT_DEFINED_HEIGHT_END
  0
MTEXT
  5
C5
330
1F
100
AcDbEntity
  8
STANDARD
100
AcDbMText
 10
-764.0990689710196
 20
829.7443487129977
 30
0.0
 40
1.127800076479913
 41
2.737972474827742
 71
     7
 72
     1
  1
\fArial;04
1001
ACAD
1000
MTEXTBEGIN
1070
    73
1070
     2
1070
    44
1040
0.9638554216867471
1000
MTEXTEND
1000
ACAD_MTEXT_DEFINED_HEIGHT_BEGIN
1070
    46
1040
1.154975981937261
1000
ACAD_MTEXT_DEFINED_HEIGHT_END
  0
MTEXT
  5
C6
330
1F
100
AcDbEntity
  8
STANDARD
100
AcDbMText
 10
-767.5990689710196
 20
829.7443487129977
 30
0.0
 40
1.127800076479913
 41
2.737972474827742
 71
     7
 72
     1
  1
\fArial;05
1001
ACAD
1000
MTEXTBEGIN
1070
    73
1070
     2
1070
    44
1040
0.9638554216867471
1000
MTEXTEND
1000
ACAD_MTEXT_DEFINED_HEIGHT_BEGIN
1070
    46
1040
1.154975981937261
1000
ACAD_MTEXT_DEFINED_HEIGHT_END
  0
MTEXT
  5
C7
330
1F
100
AcDbEntity
  8
STANDARD
100
AcDbMText
 10
-771.0990689710196
 20
829.7443487129977
 30
0.0
 40
1.127800076479913
 41
2.737972474827742
 71
     7
 72
     1
  1
\fArial;06
1001
ACAD
1000
MTEXTBEGIN
1070
    73
1070
     2
1070
    44
1040
0.9638554216867471
1000
MTEXTEND
1000
ACAD_MTEXT_DEFINED_HEIGHT_BEGIN
1070
    46
1040
1.154975981937261
1000
ACAD_MTEXT_DEFINED_HEIGHT_END
  0
MTEXT
  5
C8
330
1F
100
AcDbEntity
  8
STANDARD
100
AcDbMText
 10
-774.5990689710196
 20
829.7443487129977
 30
0.0
 40
1.127800076479913
 41
2.737972474827742
 71
     7
 72
     1
  1
\fArial;07
1001
ACAD
1000
MTEXTBEGIN
1070
    73
1070
     2
1070
    44
1040
0.9638554216867471
1000
MTEXTEND
1000
ACAD_MTEXT_DEFINED_HEIGHT_BEGIN
1070
    46
1040
1.154975981937261
1000
ACAD_MTEXT_DEFINED_HEIGHT_END
  0
MTEXT
  5
C9
330
1F
100
AcDbEntity
  8
STANDARD
100
AcDbMText
 10
-750.0990689710196
 20
825.2864246273142
 30
0.0
 40
1.127800076479913
 41
2.731178498463405
 71
     7
 72
     1
  1
\fArial;08
1001
ACAD
1000
MTEXTBEGIN
1070
    73
1070
     2
1070
    44
1040
0.9638554216867471
1000
MTEXTEND
1000
ACAD_MTEXT_DEFINED_HEIGHT_BEGIN
1070
    46
1040
1.154975981937261
1000
ACAD_MTEXT_DEFINED_HEIGHT_END
  0
MTEXT
  5
CA
330
1F
100
AcDbEntity
  8
STANDARD
100
AcDbMText
 10
-753.5990689710196
 20
825.2864246273142
 30
0.0
 40
1.127800076479913
 41
2.737972474827742
 71
     7
 72
     1
  1
\fArial;09
1001
ACAD
1000
MTEXTBEGIN
1070
    73
1070
     2
1070
    44
1040
0.9638554216867471
1000
MTEXTEND
1000
ACAD_MTEXT_DEFINED_HEIGHT_BEGIN
1070
    46
1040
1.154975981937261
1000
ACAD_MTEXT_DEFINED_HEIGHT_END
  0
MTEXT
  5
CB
330
1F
100
AcDbEntity
  8
STANDARD
100
AcDbMText
 10
-757.0990689710196
 20
825.2864246273142
 30
0.0
 40
1.127800076479913
 41
2.63606282936269
 71
     7
 72
     1
  1
\fArial;10
1001
ACAD
1000
MTEXTBEGIN
1070
    73
1070
     2
1070
    44
1040
0.9638554216867471
1000
MTEXTEND
1000
ACAD_MTEXT_DEFINED_HEIGHT_BEGIN
1070
    46
1040
1.154975981937261
1000
ACAD_MTEXT_DEFINED_HEIGHT_END
  0
MTEXT
  5
CC
330
1F
100
AcDbEntity
  8
STANDARD
100
AcDbMText
 10
-760.5990689710196
 20
825.2864246273142
 30
0.0
 40
1.127800076479913
 41
2.418655585703911
 71
     7
 72
     1
  1
\fArial;11
1001
ACAD
1000
MTEXTBEGIN
1070
    73
1070
     2
1070
    44
1040
0.9638554216867471
1000
MTEXTEND
1000
ACAD_MTEXT_DEFINED_HEIGHT_BEGIN
1070
    46
1040
1.13459405284425
1000
ACAD_MTEXT_DEFINED_HEIGHT_END
  0
MTEXT
  5
CD
330
1F
100
AcDbEntity
  8
STANDARD
100
AcDbMText
 10
-764.0990689710196
 20
825.2864246273142
 30
0.0
 40
1.127800076479913
 41
2.615680900269679
 71
     7
 72
     1
  1
\fArial;12
1001
ACAD
1000
MTEXTBEGIN
1070
    73
1070
     2
1070
    44
1040
0.9638554216867471
1000
MTEXTEND
1000
ACAD_MTEXT_DEFINED_HEIGHT_BEGIN
1070
    46
1040
1.13459405284425
1000
ACAD_MTEXT_DEFINED_HEIGHT_END
  0
MTEXT
  5
CE
330
1F
100
AcDbEntity
  8
STANDARD
100
AcDbMText
 10
-767.5990689710196
 20
825.2864246273142
 30
0.0
 40
1.127800076479913
 41
2.63606282936269
 71
     7
 72
     1
  1
\fArial;13
1001
ACAD
1000
MTEXTBEGIN
1070
    73
1070
     2
1070
    44
1040
0.9638554216867471
1000
MTEXTEND
1000
ACAD_MTEXT_DEFINED_HEIGHT_BEGIN
1070
    46
1040
1.154975981937261
1000
ACAD_MTEXT_DEFINED_HEIGHT_END
  0
MTEXT
  5
CF
330
1F
100
AcDbEntity
  8
STANDARD
100
AcDbMText
 10
-771.0990689710196
 20
825.2864246273142
 30
0.0
 40
1.127800076479913
 41
2.63606282936269
 71
     7
 72
     1
  1
\fArial;14
1001
ACAD
1000
MTEXTBEGIN
1070
    73
1070
     2
1070
    44
1040
0.9638554216867471
1000
MTEXTEND
1000
ACAD_MTEXT_DEFINED_HEIGHT_BEGIN
1070
    46
1040
1.13459405284425
1000
ACAD_MTEXT_DEFINED_HEIGHT_END
  0
MTEXT
  5
D0
330
1F
100
AcDbEntity
  8
STANDARD
100
AcDbMText
 10
-774.5990689710196
 20
825.2864246273142
 30
0.0
 40
1.127800076479913
 41
2.63606282936269
 71
     7
 72
     1
  1
\fArial;15
1001
ACAD
1000
MTEXTBEGIN
1070
    73
1070
     2
1070
    44
1040
0.9638554216867471
1000
MTEXTEND
1000
ACAD_MTEXT_DEFINED_HEIGHT_BEGIN
1070
    46
1040
1.154975981937261
1000
ACAD_MTEXT_DEFINED_HEIGHT_END
  0
MTEXT
  5
D1
330
1F
100
AcDbEntity
  8
STANDARD
100
AcDbMText
 10
-694.0990689710196
 20
825.2864246273142
 30
0.0
 40
1.127800076479913
 41
2.63606282936269
 71
     7
 72
     1
  1
\fArial;16
1001
ACAD
1000
MTEXTBEGIN
1070
    73
1070
     2
1070
    44
1040
0.9638554216867471
1000
MTEXTEND
1000
ACAD_MTEXT_DEFINED_HEIGHT_BEGIN
1070
    46
1040
1.154975981937261
1000
ACAD_MTEXT_DEFINED_HEIGHT_END
  0
MTEXT
  5
D2
330
1F
100
AcDbEntity
  8
STANDARD
100
AcDbMText
 10
-697.5990689710196
 20
825.2864246273142
 30
0.0
 40
1.127800076479913
 41
2.63606282936269
 71
     7
 72
     1
  1
\fArial;17
1001
ACAD
1000
MTEXTBEGIN
1070
    73
1070
     2
1070
    44
1040
0.9638554216867471
1000
MTEXTEND
1000
ACAD_MTEXT_DEFINED_HEIGHT_BEGIN
1070
    46
1040
1.13459405284425
1000
ACAD_MTEXT_DEFINED_HEIGHT_END
  0
MTEXT
  5
D3
330
1F
100
AcDbEntity
  8
STANDARD
100
AcDbMText
 10
-701.0990689710196
 20
825.2864246273142
 30
0.0
 40
1.127800076479913
 41
2.629268852998353
 71
     7
 72
     1
  1
\fArial;18
1001
ACAD
1000
MTEXTBEGIN
1070
    73
1070
     2
1070
    44
1040
0.9638554216867471
1000
MTEXTEND
1000
ACAD_MTEXT_DEFINED_HEIGHT_BEGIN
1070
    46
1040
1.154975981937261
1000
ACAD_MTEXT_DEFINED_HEIGHT_END
  0
MTEXT
  5
D4
330
1F
100
AcDbEntity
  8
STANDARD
100
AcDbMText
 10
-704.5990689710196
 20
825.2864246273142
 30
0.0
 40
1.127800076479913
 41
2.63606282936269
 71
     7
 72
     1
  1
\fArial;19
1001
ACAD
1000
MTEXTBEGIN
1070
    73
1070
     2
1070
    44
1040
0.9638554216867471
1000
MTEXTEND
1000
ACAD_MTEXT_DEFINED_HEIGHT_BEGIN
1070
    46
1040
1.154975981937261
1000
ACAD_MTEXT_DEFINED_HEIGHT_END
  0
MTEXT
  5
D5
330
1F
100
AcDbEntity
  8
STANDARD
100
AcDbMText
 10
-708.0990689710196
 20
825.2864246273142
 30
0.0
 40
1.127800076479913
 41
2.758354403920752
 71
     7
 72
     1
  1
\fArial;20
1001
ACAD
1000
MTEXTBEGIN
1070
    73
1070
     2
1070
    44
1040
0.9638554216867471
1000
MTEXTEND
1000
ACAD_MTEXT_DEFINED_HEIGHT_BEGIN
1070
    46
1040
1.154975981937261
1000
ACAD_MTEXT_DEFINED_HEIGHT_END
  0
MTEXT
  5
D6
330
1F
100
AcDbEntity
  8
STANDARD
100
AcDbMText
 10
-711.5990689710196
 20
825.2864246273142
 30
0.0
 40
1.127800076479913
 41
2.540947160261974
 71
     7
 72
     1
  1
\fArial;21
1001
ACAD
1000
MTEXTBEGIN
1070
    73
1070
     2
1070
    44
1040
0.9638554216867471
1000
MTEXTEND
1000
ACAD_MTEXT_DEFINED_HEIGHT_BEGIN
1070
    46
1040
1.13459405284425
1000
ACAD_MTEXT_DEFINED_HEIGHT_END
  0
MTEXT
  5
D7
330
1F
100
AcDbEntity
  8
STANDARD
100
AcDbMText
 10
-715.0990689710196
 20
825.2864246273142
 30
0.0
 40
1.127800076479913
 41
2.737972474827742
 71
     7
 72
     1
  1
\fArial;22
1001
ACAD
1000
MTEXTBEGIN
1070
    73
1070
     2
1070
    44
1040
0.9638554216867471
1000
MTEXTEND
1000
ACAD_MTEXT_DEFINED_HEIGHT_BEGIN
1070
    46
1040
1.13459405284425
1000
ACAD_MTEXT_DEFINED_HEIGHT_END
  0
MTEXT
  5
D8
330
1F
100
AcDbEntity
  8
STANDARD
100
AcDbMText
 10
-718.5990689710196
 20
825.2864246273142
 30
0.0
 40
1.127800076479913
 41
2.758354403920752
 71
     7
 72
     1
  1
\fArial;23
1001
ACAD
1000
MTEXTBEGIN
1070
    73
1070
     2
1070
    44
1040
0.9638554216867471
1000
MTEXTEND
1000
ACAD_MTEXT_DEFINED_HEIGHT_BEGIN
1070
    46
1040
1.154975981937261
1000
ACAD_MTEXT_DEFINED_HEIGHT_END
  0
MTEXT
  5
D9
330
1F
100
AcDbEntity
  8
STANDARD
100
AcDbMText
 10
-722.0990689710196
 20
825.2864246273142
 30
0.0
 40
1.127800076479913
 41
2.758354403920752
 71
     7
 72
     1
  1
\fArial;24
1001
ACAD
1000
MTEXTBEGIN
1070
    73
1070
     2
1070
    44
1040
0.9638554216867471
1000
MTEXTEND
1000
ACAD_MTEXT_DEFINED_HEIGHT_BEGIN
1070
    46
1040
1.13459405284425
1000
ACAD_MTEXT_DEFINED_HEIGHT_END
  0
MTEXT
  5
DA
330
1F
100
AcDbEntity
  8
STANDARD
100
AcDbMText
 10
-725.5990689710196
 20
825.2864246273142
 30
0.0
 40
1.127800076479913
 41
2.758354403920752
 71
     7
 72
     1
  1
\fArial;25
1001
ACAD
1000
MTEXTBEGIN
1070
    73
1070
     2
1070
    44
1040
0.9638554216867471
1000
MTEXTEND
1000
ACAD_MTEXT_DEFINED_HEIGHT_BEGIN
1070
    46
1040
1.154975981937261
1000
ACAD_MTEXT_DEFINED_HEIGHT_END
  0
MTEXT
  5
DB
330
1F
100
AcDbEntity
  8
STANDARD
100
AcDbMText
 10
-729.0990689710196
 20
825.2864246273142
 30
0.0
 40
1.127800076479913
 41
2.758354403920752
 71
     7
 72
     1
  1
\fArial;26
1001
ACAD
1000
MTEXTBEGIN
1070
    73
1070
     2
1070
    44
1040
0.9638554216867471
1000
MTEXTEND
1000
ACAD_MTEXT_DEFINED_HEIGHT_BEGIN
1070
    46
1040
1.154975981937261
1000
ACAD_MTEXT_DEFINED_HEIGHT_END
  0
MTEXT
  5
DC
330
1F
100
AcDbEntity
  8
STANDARD
100
AcDbMText
 10
-732.5990689710196
 20
825.2864246273142
 30
0.0
 40
1.127800076479913
 41
2.758354403920752
 71
     7
 72
     1
  1
\fArial;27
1001
ACAD
1000
MTEXTBEGIN
1070
    73
1070
     2
1070
    44
1040
0.9638554216867471
1000
MTEXTEND
1000
ACAD_MTEXT_DEFINED_HEIGHT_BEGIN
1070
    46
1040
1.13459405284425
1000
ACAD_MTEXT_DEFINED_HEIGHT_END
  0
MTEXT
  5
DD
330
1F
100
AcDbEntity
  8
STANDARD
100
AcDbMText
 10
-736.0990689710196
 20
825.2864246273142
 30
0.0
 40
1.127800076479913
 41
2.751560427556416
 71
     7
 72
     1
  1
\fArial;28
1001
ACAD
1000
MTEXTBEGIN
1070
    73
1070
     2
1070
    44
1040
0.9638554216867471
1000
MTEXTEND
1000
ACAD_MTEXT_DEFINED_HEIGHT_BEGIN
1070
    46
1040
1.154975981937261
1000
ACAD_MTEXT_DEFINED_HEIGHT_END
  0
MTEXT
  5
DE
330
1F
100
AcDbEntity
  8
STANDARD
100
AcDbMText
 10
-739.5990689710196
 20
825.2864246273142
 30
0.0
 40
1.127800076479913
 41
2.758354403920752
 71
     7
 72
     1
  1
\fArial;29
1001
ACAD
1000
MTEXTBEGIN
1070
    73
1070
     2
1070
    44
1040
0.9638554216867471
1000
MTEXTEND
1000
ACAD_MTEXT_DEFINED_HEIGHT_BEGIN
1070
    46
1040
1.154975981937261
1000
ACAD_MTEXT_DEFINED_HEIGHT_END
  0
MTEXT
  5
DF
330
1F
100
AcDbEntity
  8
STANDARD
100
AcDbMText
 10
-743.0990689710196
 20
825.2864246273142
 30
0.0
 40
1.127800076479913
 41
2.737972474827742
 71
     7
 72
     1
  1
\fArial;30
1001
ACAD
1000
MTEXTBEGIN
1070
    73
1070
     2
1070
    44
1040
0.9638554216867471
1000
MTEXTEND
1000
ACAD_MTEXT_DEFINED_HEIGHT_BEGIN
1070
    46
1040
1.154975981937261
1000
ACAD_MTEXT_DEFINED_HEIGHT_END
  0
MTEXT
  5
E0
330
1F
100
AcDbEntity
  8
STANDARD
100
AcDbMText
 10
-746.5990689710196
 20
825.2864246273142
 30
0.0
 40
1.127800076479913
 41
2.520565231168963
 71
     7
 72
     1
  1
\fArial;31
1001
ACAD
1000
MTEXTBEGIN
1070
    73
1070
     2
1070
    44
1040
0.9638554216867471
1000
MTEXTEND
1000
ACAD_MTEXT_DEFINED_HEIGHT_BEGIN
1070
    46
1040
1.154975981937261
1000
ACAD_MTEXT_DEFINED_HEIGHT_END
  0
MTEXT
  5
E1
330
1F
100
AcDbEntity
  8
STANDARD
100
AcDbMText
 10
-708.5125381179563
 20
844.359902723386
 30
0.0
 40
1.127800076479913
 41
4.164707511338475
 71
     7
 72
     1
  1
\fArial;ena-
1001
ACAD
1000
MTEXTBEGIN
1070
    73
1070
     2
1070
    44
1040
0.9638554216867471
1000
MTEXTEND
1000
ACAD_MTEXT_DEFINED_HEIGHT_BEGIN
1070
    46
1040
0.8492470455421035
1000
ACAD_MTEXT_DEFINED_HEIGHT_END
  0
MTEXT
  5
E2
330
1F
100
AcDbEntity
  8
STANDARD
100
AcDbMText
 10
-715.5125381179563
 20
844.359902723386
 30
0.0
 40
1.127800076479913
 41
3.295078536703362
 71
     7
 72
     1
  1
\fArial;dir-
1001
ACAD
1000
MTEXTBEGIN
1070
    73
1070
     2
1070
    44
1040
0.9638554216867471
1000
MTEXTEND
1000
ACAD_MTEXT_DEFINED_HEIGHT_BEGIN
1070
    46
1040
1.141388029208587
1000
ACAD_MTEXT_DEFINED_HEIGHT_END
  0
MTEXT
  5
E3
330
1F
100
AcDbEntity
  8
STANDARD
100
AcDbMText
 10
-719.0125381179563
 20
844.359902723386
 30
0.0
 40
1.127800076479913
 41
3.64157133128454
 71
     7
 72
     1
  1
\fArial;dir+
1001
ACAD
1000
MTEXTBEGIN
1070
    73
1070
     2
1070
    44
1040
0.9638554216867471
1000
MTEXTEND
1000
ACAD_MTEXT_DEFINED_HEIGHT_BEGIN
1070
    46
1040
1.141388029208587
1000
ACAD_MTEXT_DEFINED_HEIGHT_END
  0
MTEXT
  5
E4
330
1F
100
AcDbEntity
  8
STANDARD
100
AcDbMText
 10
-715.5125381179563
 20
816.0797829132406
 30
0.0
 40
1.127800076479913
 41
2.996143576672541
 71
     7
 72
     1
  1
\fArial;A+
1001
ACAD
1000
MTEXTBEGIN
1070
    73
1070
     2
1070
    44
1040
0.9638554216867471
1000
MTEXTEND
1000
ACAD_MTEXT_DEFINED_HEIGHT_BEGIN
1070
    46
1040
1.127800076479913
1000
ACAD_MTEXT_DEFINED_HEIGHT_END
  0
MTEXT
  5
E5
330
1F
100
AcDbEntity
  8
STANDARD
100
AcDbMText
 10
-719.0125381179563
 20
816.0797829132406
 30
0.0
 40
1.127800076479913
 41
2.649650782091363
 71
     7
 72
     1
  1
\fArial;A-
1001
ACAD
1000
MTEXTBEGIN
1070
    73
1070
     2
1070
    44
1040
0.9638554216867471
1000
MTEXTEND
1000
ACAD_MTEXT_DEFINED_HEIGHT_BEGIN
1070
    46
1040
1.127800076479913
1000
ACAD_MTEXT_DEFINED_HEIGHT_END
  0
MTEXT
  5
E6
330
1F
100
AcDbEntity
  8
STANDARD
100
AcDbMText
 10
-726.0125381179563
 20
816.0797829132406
 30
0.0
 40
1.127800076479913
 41
2.880645978478815
 71
     7
 72
     1
  1
\fArial;B+
1001
ACAD
1000
MTEXTBEGIN
1070
    73
1070
     2
1070
    44
1040
0.9638554216867471
1000
MTEXTEND
1000
ACAD_MTEXT_DEFINED_HEIGHT_BEGIN
1070
    46
1040
1.127800076479913
1000
ACAD_MTEXT_DEFINED_HEIGHT_END
  0
MTEXT
  5
E7
330
1F
100
AcDbEntity
  8
STANDARD
100
AcDbMText
 10
-729.5125381179563
 20
816.0797829132406
 30
0.0
 40
1.127800076479913
 41
2.534153183897637
 71
     7
 72
     1
  1
\fArial;B-
1001
ACAD
1000
MTEXTBEGIN
1070
    73
1070
     2
1070
    44
1040
0.9638554216867471
1000
MTEXTEND
1000
ACAD_MTEXT_DEFINED_HEIGHT_BEGIN
1070
    46
1040
1.127800076479913
1000
ACAD_MTEXT_DEFINED_HEIGHT_END
  0
MTEXT
  5
E8
330
1F
100
AcDbEntity
  8
STANDARD
100
AcDbMText
 10
-705.0125381179563
 20
816.0797829132406
 30
0.0
 40
1.127800076479913
 41
1.915901334742986
 71
     7
 72
     1
  1
\fArial;4
1001
ACAD
1000
MTEXTBEGIN
1070
    73
1070
     2
1070
    44
1040
0.9638554216867471
1000
MTEXTEND
1000
ACAD_MTEXT_DEFINED_HEIGHT_BEGIN
1070
    46
1040
1.127800076479913
1000
ACAD_MTEXT_DEFINED_HEIGHT_END
  0
MTEXT
  5
E9
330
1F
100
AcDbEntity
  8
STANDARD
100
AcDbMText
 10
-701.5125381179563
 20
816.0797829132406
 30
0.0
 40
1.127800076479913
 41
1.915901334742986
 71
     7
 72
     1
  1
\fArial;4
1001
ACAD
1000
MTEXTBEGIN
1070
    73
1070
     2
1070
    44
1040
0.9638554216867471
1000
MTEXTEND
1000
ACAD_MTEXT_DEFINED_HEIGHT_BEGIN
1070
    46
1040
1.127800076479913
1000
ACAD_MTEXT_DEFINED_HEIGHT_END
  0
MTEXT
  5
EA
330
1F
100
AcDbEntity
  8
STANDARD
100
AcDbMText
 10
-698.0125381179563
 20
816.0797829132406
 30
0.0
 40
1.127800076479913
 41
1.915901334742986
 71
     7
 72
     1
  1
\fArial;4
1001
ACAD
1000
MTEXTBEGIN
1070
    73
1070
     2
1070
    44
1040
0.9638554216867471
1000
MTEXTEND
1000
ACAD_MTEXT_DEFINED_HEIGHT_BEGIN
1070
    46
1040
1.127800076479913
1000
ACAD_MTEXT_DEFINED_HEIGHT_END
  0
MTEXT
  5
EB
330
1F
100
AcDbEntity
  8
STANDARD
100
AcDbMText
 10
-719.0125381179563
 20
820.9150644284156
 30
0.0
 40
1.127800076479913
 41
3.64157133128454
 71
     7
 72
     1
  1
\fArial;dir+
1001
ACAD
1000
MTEXTBEGIN
1070
    73
1070
     2
1070
    44
1040
0.9638554216867471
1000
MTEXTEND
1000
ACAD_MTEXT_DEFINED_HEIGHT_BEGIN
1070
    46
1040
1.141388029208587
1000
ACAD_MTEXT_DEFINED_HEIGHT_END
  0
MTEXT
  5
EC
330
1F
100
AcDbEntity
  8
STANDARD
100
AcDbMText
 10
-715.5125381179563
 20
820.9150644284156
 30
0.0
 40
1.127800076479913
 41
3.295078536703362
 71
     7
 72
     1
  1
\fArial;dir-
1001
ACAD
1000
MTEXTBEGIN
1070
    73
1070
     2
1070
    44
1040
0.9638554216867471
1000
MTEXTEND
1000
ACAD_MTEXT_DEFINED_HEIGHT_BEGIN
1070
    46
1040
1.141388029208587
1000
ACAD_MTEXT_DEFINED_HEIGHT_END
  0
MTEXT
  5
ED
330
1F
100
AcDbEntity
  8
STANDARD
100
AcDbMText
 10
-708.5125381179563
 20
820.9150644284156
 30
0.0
 40
1.127800076479913
 41
4.164707511338475
 71
     7
 72
     1
  1
\fArial;ena-
1001
ACAD
1000
MTEXTBEGIN
1070
    73
1070
     2
1070
    44
1040
0.9638554216867471
1000
MTEXTEND
1000
ACAD_MTEXT_DEFINED_HEIGHT_BEGIN
1070
    46
1040
0.8492470455421035
1000
ACAD_MTEXT_DEFINED_HEIGHT_END
  0
MTEXT
  5
EE
330
1F
100
AcDbEntity
  8
STANDARD
100
AcDbMText
 10
-701.5125381179563
 20
811.1769294711892
 30
0.0
 40
1.127800076479913
 41
1.868343500192628
 71
     7
 72
     1
  1
\fArial;0
1001
ACAD
1000
MTEXTBEGIN
1070
    73
1070
     2
1070
    44
1040
0.9638554216867471
1000
MTEXTEND
1000
ACAD_MTEXT_DEFINED_HEIGHT_BEGIN
1070
    46
1040
1.154975981937261
1000
ACAD_MTEXT_DEFINED_HEIGHT_END
  0
MTEXT
  5
EF
330
1F
100
AcDbEntity
  8
STANDARD
100
AcDbMText
 10
-698.0125381179563
 20
811.1769294711892
 30
0.0
 40
1.127800076479913
 41
1.868343500192628
 71
     7
 72
     1
  1
\fArial;0
1001
ACAD
1000
MTEXTBEGIN
1070
    73
1070
     2
1070
    44
1040
0.9638554216867471
1000
MTEXTEND
1000
ACAD_MTEXT_DEFINED_HEIGHT_BEGIN
1070
    46
1040
1.154975981937261
1000
ACAD_MTEXT_DEFINED_HEIGHT_END
  0
MTEXT
  5
F0
330
1F
100
AcDbEntity
  8
STANDARD
100
AcDbMText
 10
-719.0125381179563
 20
811.1769294711892
 30
0.0
 40
1.127800076479913
 41
1.549026611068797
 71
     7
 72
     1
  1
\fArial;1
1001
ACAD
1000
MTEXTBEGIN
1070
    73
1070
     2
1070
    44
1040
0.9638554216867471
1000
MTEXTEND
1000
ACAD_MTEXT_DEFINED_HEIGHT_BEGIN
1070
    46
1040
1.13459405284425
1000
ACAD_MTEXT_DEFINED_HEIGHT_END
  0
MTEXT
  5
F1
330
1F
100
AcDbEntity
  8
STANDARD
100
AcDbMText
 10
-722.5125381179563
 20
811.1769294711892
 30
0.0
 40
1.127800076479913
 41
1.549026611068797
 71
     7
 72
     1
  1
\fArial;1
1001
ACAD
1000
MTEXTBEGIN
1070
    73
1070
     2
1070
    44
1040
0.9638554216867471
1000
MTEXTEND
1000
ACAD_MTEXT_DEFINED_HEIGHT_BEGIN
1070
    46
1040
1.13459405284425
1000
ACAD_MTEXT_DEFINED_HEIGHT_END
  0
MTEXT
  5
F2
330
1F
100
AcDbEntity
  8
STANDARD
100
AcDbMText
 10
-726.0125381179563
 20
811.1769294711892
 30
0.0
 40
1.127800076479913
 41
1.549026611068797
 71
     7
 72
     1
  1
\fArial;1
1001
ACAD
1000
MTEXTBEGIN
1070
    73
1070
     2
1070
    44
1040
0.9638554216867471
1000
MTEXTEND
1000
ACAD_MTEXT_DEFINED_HEIGHT_BEGIN
1070
    46
1040
1.13459405284425
1000
ACAD_MTEXT_DEFINED_HEIGHT_END
  0
MTEXT
  5
F3
330
1F
100
AcDbEntity
  8
STANDARD
100
AcDbMText
 10
-771.5125381179563
 20
834.6217677661596
 30
0.0
 40
1.127800076479913
 41
1.868343500192628
 71
     7
 72
     1
  1
\fArial;3
1001
ACAD
1000
MTEXTBEGIN
1070
    73
1070
     2
1070
    44
1040
0.9638554216867471
1000
MTEXTEND
1000
ACAD_MTEXT_DEFINED_HEIGHT_BEGIN
1070
    46
1040
1.154975981937261
1000
ACAD_MTEXT_DEFINED_HEIGHT_END
  0
MTEXT
  5
F4
330
1F
100
AcDbEntity
  8
STANDARD
100
AcDbMText
 10
-768.0125381179563
 20
834.6217677661596
 30
0.0
 40
1.127800076479913
 41
1.868343500192628
 71
     7
 72
     1
  1
\fArial;3
1001
ACAD
1000
MTEXTBEGIN
1070
    73
1070
     2
1070
    44
1040
0.9638554216867471
1000
MTEXTEND
1000
ACAD_MTEXT_DEFINED_HEIGHT_BEGIN
1070
    46
1040
1.154975981937261
1000
ACAD_MTEXT_DEFINED_HEIGHT_END
  0
MTEXT
  5
F5
330
1F
100
AcDbEntity
  8
STANDARD
100
AcDbMText
 10
-764.5125381179563
 20
834.6217677661596
 30
0.0
 40
1.127800076479913
 41
1.868343500192628
 71
     7
 72
     1
  1
\fArial;3
1001
ACAD
1000
MTEXTBEGIN
1070
    73
1070
     2
1070
    44
1040
0.9638554216867471
1000
MTEXTEND
1000
ACAD_MTEXT_DEFINED_HEIGHT_BEGIN
1070
    46
1040
1.154975981937261
1000
ACAD_MTEXT_DEFINED_HEIGHT_END
  0
MTEXT
  5
F6
330
1F
100
AcDbEntity
  8
STANDARD
100
AcDbMText
 10
-761.0125381179563
 20
834.6217677661596
 30
0.0
 40
1.127800076479913
 41
1.868343500192628
 71
     7
 72
     1
  1
\fArial;3
1001
ACAD
1000
MTEXTBEGIN
1070
    73
1070
     2
1070
    44
1040
0.9638554216867471
1000
MTEXTEND
1000
ACAD_MTEXT_DEFINED_HEIGHT_BEGIN
1070
    46
1040
1.154975981937261
1000
ACAD_MTEXT_DEFINED_HEIGHT_END
  0
MTEXT
  5
F7
330
1F
100
AcDbEntity
  8
STANDARD
100
AcDbMText
 10
-750.5125381179563
 20
834.6217677661596
 30
0.0
 40
1.127800076479913
 41
1.868343500192628
 71
     7
 72
     1
  1
\fArial;2
1001
ACAD
1000
MTEXTBEGIN
1070
    73
1070
     2
1070
    44
1040
0.9638554216867471
1000
MTEXTEND
1000
ACAD_MTEXT_DEFINED_HEIGHT_BEGIN
1070
    46
1040
1.13459405284425
1000
ACAD_MTEXT_DEFINED_HEIGHT_END
  0
MTEXT
  5
F8
330
1F
100
AcDbEntity
  8
STANDARD
100
AcDbMText
 10
-747.0125381179563
 20
834.6217677661596
 30
0.0
 40
1.127800076479913
 41
1.868343500192628
 71
     7
 72
     1
  1
\fArial;2
1001
ACAD
1000
MTEXTBEGIN
1070
    73
1070
     2
1070
    44
1040
0.9638554216867471
1000
MTEXTEND
1000
ACAD_MTEXT_DEFINED_HEIGHT_BEGIN
1070
    46
1040
1.13459405284425
1000
ACAD_MTEXT_DEFINED_HEIGHT_END
  0
MTEXT
  5
F9
330
1F
100
AcDbEntity
  8
STANDARD
100
AcDbMText
 10
-743.5125381179563
 20
834.6217677661596
 30
0.0
 40
1.127800076479913
 41
1.868343500192628
 71
     7
 72
     1
  1
\fArial;2
1001
ACAD
1000
MTEXTBEGIN
1070
    73
1070
     2
1070
    44
1040
0.9638554216867471
1000
MTEXTEND
1000
ACAD_MTEXT_DEFINED_HEIGHT_BEGIN
1070
    46
1040
1.13459405284425
1000
ACAD_MTEXT_DEFINED_HEIGHT_END
  0
MTEXT
  5
FA
330
1F
100
AcDbEntity
  8
STANDARD
100
AcDbMText
 10
-740.0125381179563
 20
834.6217677661596
 30
0.0
 40
1.127800076479913
 41
1.868343500192628
 71
     7
 72
     1
  1
\fArial;2
1001
ACAD
1000
MTEXTBEGIN
1070
    73
1070
     2
1070
    44
1040
0.9638554216867471
1000
MTEXTEND
1000
ACAD_MTEXT_DEFINED_HEIGHT_BEGIN
1070
    46
1040
1.13459405284425
1000
ACAD_MTEXT_DEFINED_HEIGHT_END
  0
MTEXT
  5
FB
330
1F
100
AcDbEntity
  8
STANDARD
100
AcDbMText
 10
-729.5125381179563
 20
834.6217677661596
 30
0.0
 40
1.127800076479913
 41
1.549026611068797
 71
     7
 72
     1
  1
\fArial;1
1001
ACAD
1000
MTEXTBEGIN
1070
    73
1070
     2
1070
    44
1040
0.9638554216867471
1000
MTEXTEND
1000
ACAD_MTEXT_DEFINED_HEIGHT_BEGIN
1070
    46
1040
1.13459405284425
1000
ACAD_MTEXT_DEFINED_HEIGHT_END
  0
MTEXT
  5
FC
330
1F
100
AcDbEntity
  8
STANDARD
100
AcDbMText
 10
-726.0125381179563
 20
834.6217677661596
 30
0.0
 40
1.127800076479913
 41
1.549026611068797
 71
     7
 72
     1
  1
\fArial;1
1001
ACAD
1000
MTEXTBEGIN
1070
    73
1070
     2
1070
    44
1040
0.9638554216867471
1000
MTEXTEND
1000
ACAD_MTEXT_DEFINED_HEIGHT_BEGIN
1070
    46
1040
1.13459405284425
1000
ACAD_MTEXT_DEFINED_HEIGHT_END
  0
MTEXT
  5
FD
330
1F
100
AcDbEntity
  8
STANDARD
100
AcDbMText
 10
-722.5125381179563
 20
834.6217677661596
 30
0.0
 40
1.127800076479913
 41
1.549026611068797
 71
     7
 72
     1
  1
\fArial;1
1001
ACAD
1000
MTEXTBEGIN
1070
    73
1070
     2
1070
    44
1040
0.9638554216867471
1000
MTEXTEND
1000
ACAD_MTEXT_DEFINED_HEIGHT_BEGIN
1070
    46
1040
1.13459405284425
1000
ACAD_MTEXT_DEFINED_HEIGHT_END
  0
MTEXT
  5
FE
330
1F
100
AcDbEntity
  8
STANDARD
100
AcDbMText
 10
-719.0125381179563
 20
834.6217677661596
 30
0.0
 40
1.127800076479913
 41
1.549026611068797
 71
     7
 72
     1
  1
\fArial;1
1001
ACAD
1000
MTEXTBEGIN
1070
    73
1070
     2
1070
    44
1040
0.9638554216867471
1000
MTEXTEND
1000
ACAD_MTEXT_DEFINED_HEIGHT_BEGIN
1070
    46
1040
1.13459405284425
1000
ACAD_MTEXT_DEFINED_HEIGHT_END
  0
MTEXT
  5
FF
330
1F
100
AcDbEntity
  8
STANDARD
100
AcDbMText
 10
-698.0125381179563
 20
834.6217677661596
 30
0.0
 40
1.127800076479913
 41
1.868343500192628
 71
     7
 72
     1
  1
\fArial;0
1001
ACAD
1000
MTEXTBEGIN
1070
    73
1070
     2
1070
    44
1040
0.9638554216867471
1000
MTEXTEND
1000
ACAD_MTEXT_DEFINED_HEIGHT_BEGIN
1070
    46
1040
1.154975981937261
1000
ACAD_MTEXT_DEFINED_HEIGHT_END
  0
MTEXT
  5
100
330
1F
100
AcDbEntity
  8
STANDARD
100
AcDbMText
 10
-701.5125381179563
 20
834.6217677661596
 30
0.0
 40
1.127800076479913
 41
1.868343500192628
 71
     7
 72
     1
  1
\fArial;0
1001
ACAD
1000
MTEXTBEGIN
1070
    73
1070
     2
1070
    44
1040
0.9638554216867471
1000
MTEXTEND
1000
ACAD_MTEXT_DEFINED_HEIGHT_BEGIN
1070
    46
1040
1.154975981937261
1000
ACAD_MTEXT_DEFINED_HEIGHT_END
  0
MTEXT
  5
101
330
1F
100
AcDbEntity
  8
STANDARD
100
AcDbMText
 10
-705.0125381179563
 20
834.6217677661596
 30
0.0
 40
1.127800076479913
 41
1.868343500192628
 71
     7
 72
     1
  1
\fArial;0
1001
ACAD
1000
MTEXTBEGIN
1070
    73
1070
     2
1070
    44
1040
0.9638554216867471
1000
MTEXTEND
1000
ACAD_MTEXT_DEFINED_HEIGHT_BEGIN
1070
    46
1040
1.154975981937261
1000
ACAD_MTEXT_DEFINED_HEIGHT_END
  0
MTEXT
  5
102
330
1F
100
AcDbEntity
  8
STANDARD
100
AcDbMText
 10
-708.5125381179563
 20
834.6217677661596
 30
0.0
 40
1.127800076479913
 41
1.868343500192628
 71
     7
 72
     1
  1
\fArial;0
1001
ACAD
1000
MTEXTBEGIN
1070
    73
1070
     2
1070
    44
1040
0.9638554216867471
1000
MTEXTEND
1000
ACAD_MTEXT_DEFINED_HEIGHT_BEGIN
1070
    46
1040
1.154975981937261
1000
ACAD_MTEXT_DEFINED_HEIGHT_END
  0
MTEXT
  5
103
330
1F
100
AcDbEntity
  8
STANDARD
100
AcDbMText
 10
-698.0125381179563
 20
839.524621208211
 30
0.0
 40
1.127800076479913
 41
1.915901334742986
 71
     7
 72
     1
  1
\fArial;4
1001
ACAD
1000
MTEXTBEGIN
1070
    73
1070
     2
1070
    44
1040
0.9638554216867471
1000
MTEXTEND
1000
ACAD_MTEXT_DEFINED_HEIGHT_BEGIN
1070
    46
1040
1.127800076479913
1000
ACAD_MTEXT_DEFINED_HEIGHT_END
  0
MTEXT
  5
104
330
1F
100
AcDbEntity
  8
STANDARD
100
AcDbMText
 10
-701.5125381179563
 20
839.524621208211
 30
0.0
 40
1.127800076479913
 41
1.915901334742986
 71
     7
 72
     1
  1
\fArial;4
1001
ACAD
1000
MTEXTBEGIN
1070
    73
1070
     2
1070
    44
1040
0.9638554216867471
1000
MTEXTEND
1000
ACAD_MTEXT_DEFINED_HEIGHT_BEGIN
1070
    46
1040
1.127800076479913
1000
ACAD_MTEXT_DEFINED_HEIGHT_END
  0
MTEXT
  5
105
330
1F
100
AcDbEntity
  8
STANDARD
100
AcDbMText
 10
-705.0125381179563
 20
839.524621208211
 30
0.0
 40
1.127800076479913
 41
1.915901334742986
 71
     7
 72
     1
  1
\fArial;4
1001
ACAD
1000
MTEXTBEGIN
1070
    73
1070
     2
1070
    44
1040
0.9638554216867471
1000
MTEXTEND
1000
ACAD_MTEXT_DEFINED_HEIGHT_BEGIN
1070
    46
1040
1.127800076479913
1000
ACAD_MTEXT_DEFINED_HEIGHT_END
  0
MTEXT
  5
106
330
1F
100
AcDbEntity
  8
STANDARD
100
AcDbMText
 10
-708.5125381179563
 20
839.524621208211
 30
0.0
 40
1.127800076479913
 41
1.915901334742986
 71
     7
 72
     1
  1
\fArial;4
1001
ACAD
1000
MTEXTBEGIN
1070
    73
1070
     2
1070
    44
1040
0.9638554216867471
1000
MTEXTEND
1000
ACAD_MTEXT_DEFINED_HEIGHT_BEGIN
1070
    46
1040
1.127800076479913
1000
ACAD_MTEXT_DEFINED_HEIGHT_END
  0
MTEXT
  5
107
330
1F
100
AcDbEntity
  8
STANDARD
100
AcDbMText
 10
-740.0125381179563
 20
811.1769294711892
 30
0.0
 40
1.127800076479913
 41
1.868343500192628
 71
     7
 72
     1
  1
\fArial;2
1001
ACAD
1000
MTEXTBEGIN
1070
    73
1070
     2
1070
    44
1040
0.9638554216867471
1000
MTEXTEND
1000
ACAD_MTEXT_DEFINED_HEIGHT_BEGIN
1070
    46
1040
1.13459405284425
1000
ACAD_MTEXT_DEFINED_HEIGHT_END
  0
MTEXT
  5
108
330
1F
100
AcDbEntity
  8
STANDARD
100
AcDbMText
 10
-743.5125381179563
 20
811.1769294711892
 30
0.0
 40
1.127800076479913
 41
1.868343500192628
 71
     7
 72
     1
  1
\fArial;2
1001
ACAD
1000
MTEXTBEGIN
1070
    73
1070
     2
1070
    44
1040
0.9638554216867471
1000
MTEXTEND
1000
ACAD_MTEXT_DEFINED_HEIGHT_BEGIN
1070
    46
1040
1.13459405284425
1000
ACAD_MTEXT_DEFINED_HEIGHT_END
  0
MTEXT
  5
109
330
1F
100
AcDbEntity
  8
STANDARD
100
AcDbMText
 10
-747.0125381179563
 20
811.1769294711892
 30
0.0
 40
1.127800076479913
 41
1.868343500192628
 71
     7
 72
     1
  1
\fArial;2
1001
ACAD
1000
MTEXTBEGIN
1070
    73
1070
     2
1070
    44
1040
0.9638554216867471
1000
MTEXTEND
1000
ACAD_MTEXT_DEFINED_HEIGHT_BEGIN
1070
    46
1040
1.13459405284425
1000
ACAD_MTEXT_DEFINED_HEIGHT_END
  0
MTEXT
  5
10A
330
1F
100
AcDbEntity
  8
STANDARD
100
AcDbMText
 10
-761.0125381179563
 20
811.1769294711892
 30
0.0
 40
1.127800076479913
 41
1.868343500192628
 71
     7
 72
     1
  1
\fArial;3
1001
ACAD
1000
MTEXTBEGIN
1070
    73
1070
     2
1070
    44
1040
0.9638554216867471
1000
MTEXTEND
1000
ACAD_MTEXT_DEFINED_HEIGHT_BEGIN
1070
    46
1040
1.154975981937261
1000
ACAD_MTEXT_DEFINED_HEIGHT_END
  0
MTEXT
  5
10B
330
1F
100
AcDbEntity
  8
STANDARD
100
AcDbMText
 10
-764.5125381179563
 20
811.1769294711892
 30
0.0
 40
1.127800076479913
 41
1.868343500192628
 71
     7
 72
     1
  1
\fArial;3
1001
ACAD
1000
MTEXTBEGIN
1070
    73
1070
     2
1070
    44
1040
0.9638554216867471
1000
MTEXTEND
1000
ACAD_MTEXT_DEFINED_HEIGHT_BEGIN
1070
    46
1040
1.154975981937261
1000
ACAD_MTEXT_DEFINED_HEIGHT_END
  0
MTEXT
  5
10C
330
1F
100
AcDbEntity
  8
STANDARD
100
AcDbMText
 10
-768.0125381179563
 20
811.1769294711892
 30
0.0
 40
1.127800076479913
 41
1.868343500192628
 71
     7
 72
     1
  1
\fArial;3
1001
ACAD
1000
MTEXTBEGIN
1070
    73
1070
     2
1070
    44
1040
0.9638554216867471
1000
MTEXTEND
1000
ACAD_MTEXT_DEFINED_HEIGHT_BEGIN
1070
    46
1040
1.154975981937261
1000
ACAD_MTEXT_DEFINED_HEIGHT_END
  0
MTEXT
  5
10D
330
1F
100
AcDbEntity
  8
STANDARD
100
AcDbMText
 10
-760.9492984608497
 20
812.4857725049072
 30
0.0
 40
1.127800076479913
 41
3.104847198501931
 71
     7
 72
     1
  1
\fArial;stp
1001
ACAD
1000
MTEXTBEGIN
1070
    73
1070
     2
1070
    44
1040
0.9638554216867471
1000
MTEXTEND
1000
ACAD_MTEXT_DEFINED_HEIGHT_BEGIN
1070
    46
1040
1.419941060146397
1000
ACAD_MTEXT_DEFINED_HEIGHT_END
  0
MTEXT
  5
10E
330
1F
100
AcDbEntity
  8
STANDARD
100
AcDbMText
 10
-764.4492984608497
 20
812.4857725049072
 30
0.0
 40
1.127800076479913
 41
3.988064125865718
 71
     7
 72
     1
  1
\fArial;stp+
1001
ACAD
1000
MTEXTBEGIN
1070
    73
1070
     2
1070
    44
1040
0.9638554216867471
1000
MTEXTEND
1000
ACAD_MTEXT_DEFINED_HEIGHT_BEGIN
1070
    46
1040
1.419941060146397
1000
ACAD_MTEXT_DEFINED_HEIGHT_END
  0
MTEXT
  5
10F
330
1F
100
AcDbEntity
  8
STANDARD
100
AcDbMText
 10
-767.9492984608497
 20
812.4857725049072
 30
0.0
 40
1.127800076479913
 41
2.839882120292794
 71
     7
 72
     1
  1
\fArial;dir
1001
ACAD
1000
MTEXTBEGIN
1070
    73
1070
     2
1070
    44
1040
0.9638554216867471
1000
MTEXTEND
1000
ACAD_MTEXT_DEFINED_HEIGHT_BEGIN
1070
    46
1040
1.141388029208587
1000
ACAD_MTEXT_DEFINED_HEIGHT_END
  0
MTEXT
  5
110
330
1F
100
AcDbEntity
  8
STANDARD
100
AcDbMText
 10
-771.4492984608497
 20
812.4857725049072
 30
0.0
 40
1.127800076479913
 41
3.64157133128454
 71
     7
 72
     1
  1
\fArial;dir+
1001
ACAD
1000
MTEXTBEGIN
1070
    73
1070
     2
1070
    44
1040
0.9638554216867471
1000
MTEXTEND
1000
ACAD_MTEXT_DEFINED_HEIGHT_BEGIN
1070
    46
1040
1.141388029208587
1000
ACAD_MTEXT_DEFINED_HEIGHT_END
  0
MTEXT
  5
111
330
1F
100
AcDbEntity
  8
STANDARD
100
AcDbMText
 10
-739.9492984608497
 20
812.4857725049072
 30
0.0
 40
1.127800076479913
 41
3.104847198501931
 71
     7
 72
     1
  1
\fArial;stp
1001
ACAD
1000
MTEXTBEGIN
1070
    73
1070
     2
1070
    44
1040
0.9638554216867471
1000
MTEXTEND
1000
ACAD_MTEXT_DEFINED_HEIGHT_BEGIN
1070
    46
1040
1.419941060146397
1000
ACAD_MTEXT_DEFINED_HEIGHT_END
  0
MTEXT
  5
112
330
1F
100
AcDbEntity
  8
STANDARD
100
AcDbMText
 10
-743.4492984608497
 20
812.4857725049072
 30
0.0
 40
1.127800076479913
 41
3.988064125865718
 71
     7
 72
     1
  1
\fArial;stp+
1001
ACAD
1000
MTEXTBEGIN
1070
    73
1070
     2
1070
    44
1040
0.9638554216867471
1000
MTEXTEND
1000
ACAD_MTEXT_DEFINED_HEIGHT_BEGIN
1070
    46
1040
1.419941060146397
1000
ACAD_MTEXT_DEFINED_HEIGHT_END
  0
MTEXT
  5
113
330
1F
100
AcDbEntity
  8
STANDARD
100
AcDbMText
 10
-746.9492984608497
 20
812.4857725049072
 30
0.0
 40
1.127800076479913
 41
2.839882120292794
 71
     7
 72
     1
  1
\fArial;dir
1001
ACAD
1000
MTEXTBEGIN
1070
    73
1070
     2
1070
    44
1040
0.9638554216867471
1000
MTEXTEND
1000
ACAD_MTEXT_DEFINED_HEIGHT_BEGIN
1070
    46
1040
1.141388029208587
1000
ACAD_MTEXT_DEFINED_HEIGHT_END
  0
MTEXT
  5
114
330
1F
100
AcDbEntity
  8
STANDARD
100
AcDbMText
 10
-750.4492984608497
 20
812.4857725049072
 30
0.0
 40
1.127800076479913
 41
3.64157133128454
 71
     7
 72
     1
  1
\fArial;dir+
1001
ACAD
1000
MTEXTBEGIN
1070
    73
1070
     2
1070
    44
1040
0.9638554216867471
1000
MTEXTEND
1000
ACAD_MTEXT_DEFINED_HEIGHT_BEGIN
1070
    46
1040
1.141388029208587
1000
ACAD_MTEXT_DEFINED_HEIGHT_END
  0
MTEXT
  5
115
330
1F
100
AcDbEntity
  8
STANDARD
100
AcDbMText
 10
-697.9492984608497
 20
840.833464241929
 30
0.0
 40
1.127800076479913
 41
3.104847198501931
 71
     7
 72
     1
  1
\fArial;stp
1001
ACAD
1000
MTEXTBEGIN
1070
    73
1070
     2
1070
    44
1040
0.9638554216867471
1000
MTEXTEND
1000
ACAD_MTEXT_DEFINED_HEIGHT_BEGIN
1070
    46
1040
1.419941060146397
1000
ACAD_MTEXT_DEFINED_HEIGHT_END
  0
MTEXT
  5
116
330
1F
100
AcDbEntity
  8
STANDARD
100
AcDbMText
 10
-701.4492984608497
 20
840.833464241929
 30
0.0
 40
1.127800076479913
 41
3.988064125865718
 71
     7
 72
     1
  1
\fArial;stp+
1001
ACAD
1000
MTEXTBEGIN
1070
    73
1070
     2
1070
    44
1040
0.9638554216867471
1000
MTEXTEND
1000
ACAD_MTEXT_DEFINED_HEIGHT_BEGIN
1070
    46
1040
1.419941060146397
1000
ACAD_MTEXT_DEFINED_HEIGHT_END
  0
MTEXT
  5
117
330
1F
100
AcDbEntity
  8
STANDARD
100
AcDbMText
 10
-704.9492984608497
 20
840.833464241929
 30
0.0
 40
1.127800076479913
 41
2.839882120292794
 71
     7
 72
     1
  1
\fArial;dir
1001
ACAD
1000
MTEXTBEGIN
1070
    73
1070
     2
1070
    44
1040
0.9638554216867471
1000
MTEXTEND
1000
ACAD_MTEXT_DEFINED_HEIGHT_BEGIN
1070
    46
1040
1.141388029208587
1000
ACAD_MTEXT_DEFINED_HEIGHT_END
  0
MTEXT
  5
118
330
1F
100
AcDbEntity
  8
STANDARD
100
AcDbMText
 10
-708.4492984608497
 20
840.833464241929
 30
0.0
 40
1.127800076479913
 41
3.64157133128454
 71
     7
 72
     1
  1
\fArial;dir+
1001
ACAD
1000
MTEXTBEGIN
1070
    73
1070
     2
1070
    44
1040
0.9638554216867471
1000
MTEXTEND
1000
ACAD_MTEXT_DEFINED_HEIGHT_BEGIN
1070
    46
1040
1.141388029208587
1000
ACAD_MTEXT_DEFINED_HEIGHT_END
  0
MTEXT
  5
119
330
1F
100
AcDbEntity
  8
STANDARD
100
AcDbMText
 10
-697.9492984608497
 20
835.9306107998776
 30
0.0
 40
1.127800076479913
 41
3.104847198501931
 71
     7
 72
     1
  1
\fArial;stp
1001
ACAD
1000
MTEXTBEGIN
1070
    73
1070
     2
1070
    44
1040
0.9638554216867471
1000
MTEXTEND
1000
ACAD_MTEXT_DEFINED_HEIGHT_BEGIN
1070
    46
1040
1.419941060146397
1000
ACAD_MTEXT_DEFINED_HEIGHT_END
  0
MTEXT
  5
11A
330
1F
100
AcDbEntity
  8
STANDARD
100
AcDbMText
 10
-701.4492984608497
 20
835.9306107998776
 30
0.0
 40
1.127800076479913
 41
3.988064125865718
 71
     7
 72
     1
  1
\fArial;stp+
1001
ACAD
1000
MTEXTBEGIN
1070
    73
1070
     2
1070
    44
1040
0.9638554216867471
1000
MTEXTEND
1000
ACAD_MTEXT_DEFINED_HEIGHT_BEGIN
1070
    46
1040
1.419941060146397
1000
ACAD_MTEXT_DEFINED_HEIGHT_END
  0
MTEXT
  5
11B
330
1F
100
AcDbEntity
  8
STANDARD
100
AcDbMText
 10
-704.9492984608497
 20
835.9306107998776
 30
0.0
 40
1.127800076479913
 41
2.839882120292794
 71
     7
 72
     1
  1
\fArial;dir
1001
ACAD
1000
MTEXTBEGIN
1070
    73
1070
     2
1070
    44
1040
0.9638554216867471
1000
MTEXTEND
1000
ACAD_MTEXT_DEFINED_HEIGHT_BEGIN
1070
    46
1040
1.141388029208587
1000
ACAD_MTEXT_DEFINED_HEIGHT_END
  0
MTEXT
  5
11C
330
1F
100
AcDbEntity
  8
STANDARD
100
AcDbMText
 10
-708.4492984608497
 20
835.9306107998776
 30
0.0
 40
1.127800076479913
 41
3.64157133128454
 71
     7
 72
     1
  1
\fArial;dir+
1001
ACAD
1000
MTEXTBEGIN
1070
    73
1070
     2
1070
    44
1040
0.9638554216867471
1000
MTEXTEND
1000
ACAD_MTEXT_DEFINED_HEIGHT_BEGIN
1070
    46
1040
1.141388029208587
1000
ACAD_MTEXT_DEFINED_HEIGHT_END
  0
MTEXT
  5
11D
330
1F
100
AcDbEntity
  8
STANDARD
100
AcDbMText
 10
-729.4492984608497
 20
835.9306107998776
 30
0.0
 40
1.127800076479913
 41
3.64157133128454
 71
     7
 72
     1
  1
\fArial;dir+
1001
ACAD
1000
MTEXTBEGIN
1070
    73
1070
     2
1070
    44
1040
0.9638554216867471
1000
MTEXTEND
1000
ACAD_MTEXT_DEFINED_HEIGHT_BEGIN
1070
    46
1040
1.141388029208587
1000
ACAD_MTEXT_DEFINED_HEIGHT_END
  0
MTEXT
  5
11E
330
1F
100
AcDbEntity
  8
STANDARD
100
AcDbMText
 10
-725.9492984608497
 20
835.9306107998776
 30
0.0
 40
1.127800076479913
 41
2.839882120292794
 71
     7
 72
     1
  1
\fArial;dir
1001
ACAD
1000
MTEXTBEGIN
1070
    73
1070
     2
1070
    44
1040
0.9638554216867471
1000
MTEXTEND
1000
ACAD_MTEXT_DEFINED_HEIGHT_BEGIN
1070
    46
1040
1.141388029208587
1000
ACAD_MTEXT_DEFINED_HEIGHT_END
  0
MTEXT
  5
11F
330
1F
100
AcDbEntity
  8
STANDARD
100
AcDbMText
 10
-722.4492984608497
 20
835.9306107998776
 30
0.0
 40
1.127800076479913
 41
3.988064125865718
 71
     7
 72
     1
  1
\fArial;stp+
1001
ACAD
1000
MTEXTBEGIN
1070
    73
1070
     2
1070
    44
1040
0.9638554216867471
1000
MTEXTEND
1000
ACAD_MTEXT_DEFINED_HEIGHT_BEGIN
1070
    46
1040
1.419941060146397
1000
ACAD_MTEXT_DEFINED_HEIGHT_END
  0
MTEXT
  5
120
330
1F
100
AcDbEntity
  8
STANDARD
100
AcDbMText
 10
-718.9492984608497
 20
835.9306107998776
 30
0.0
 40
1.127800076479913
 41
3.104847198501931
 71
     7
 72
     1
  1
\fArial;stp
1001
ACAD
1000
MTEXTBEGIN
1070
    73
1070
     2
1070
    44
1040
0.9638554216867471
1000
MTEXTEND
1000
ACAD_MTEXT_DEFINED_HEIGHT_BEGIN
1070
    46
1040
1.419941060146397
1000
ACAD_MTEXT_DEFINED_HEIGHT_END
  0
MTEXT
  5
121
330
1F
100
AcDbEntity
  8
STANDARD
100
AcDbMText
 10
-750.4492984608497
 20
835.9306107998776
 30
0.0
 40
1.127800076479913
 41
3.64157133128454
 71
     7
 72
     1
  1
\fArial;dir+
1001
ACAD
1000
MTEXTBEGIN
1070
    73
1070
     2
1070
    44
1040
0.9638554216867471
1000
MTEXTEND
1000
ACAD_MTEXT_DEFINED_HEIGHT_BEGIN
1070
    46
1040
1.141388029208587
1000
ACAD_MTEXT_DEFINED_HEIGHT_END
  0
MTEXT
  5
122
330
1F
100
AcDbEntity
  8
STANDARD
100
AcDbMText
 10
-746.9492984608497
 20
835.9306107998776
 30
0.0
 40
1.127800076479913
 41
2.839882120292794
 71
     7
 72
     1
  1
\fArial;dir
1001
ACAD
1000
MTEXTBEGIN
1070
    73
1070
     2
1070
    44
1040
0.9638554216867471
1000
MTEXTEND
1000
ACAD_MTEXT_DEFINED_HEIGHT_BEGIN
1070
    46
1040
1.141388029208587
1000
ACAD_MTEXT_DEFINED_HEIGHT_END
  0
MTEXT
  5
123
330
1F
100
AcDbEntity
  8
STANDARD
100
AcDbMText
 10
-743.4492984608497
 20
835.9306107998776
 30
0.0
 40
1.127800076479913
 41
3.988064125865718
 71
     7
 72
     1
  1
\fArial;stp+
1001
ACAD
1000
MTEXTBEGIN
1070
    73
1070
     2
1070
    44
1040
0.9638554216867471
1000
MTEXTEND
1000
ACAD_MTEXT_DEFINED_HEIGHT_BEGIN
1070
    46
1040
1.419941060146397
1000
ACAD_MTEXT_DEFINED_HEIGHT_END
  0
MTEXT
  5
124
330
1F
100
AcDbEntity
  8
STANDARD
100
AcDbMText
 10
-739.9492984608497
 20
835.9306107998776
 30
0.0
 40
1.127800076479913
 41
3.104847198501931
 71
     7
 72
     1
  1
\fArial;stp
1001
ACAD
1000
MTEXTBEGIN
1070
    73
1070
     2
1070
    44
1040
0.9638554216867471
1000
MTEXTEND
1000
ACAD_MTEXT_DEFINED_HEIGHT_BEGIN
1070
    46
1040
1.419941060146397
1000
ACAD_MTEXT_DEFINED_HEIGHT_END
  0
MTEXT
  5
125
330
1F
100
AcDbEntity
  8
STANDARD
100
AcDbMText
 10
-771.4492984608497
 20
835.9306107998776
 30
0.0
 40
1.127800076479913
 41
3.64157133128454
 71
     7
 72
     1
  1
\fArial;dir+
1001
ACAD
1000
MTEXTBEGIN
1070
    73
1070
     2
1070
    44
1040
0.9638554216867471
1000
MTEXTEND
1000
ACAD_MTEXT_DEFINED_HEIGHT_BEGIN
1070
    46
1040
1.141388029208587
1000
ACAD_MTEXT_DEFINED_HEIGHT_END
  0
MTEXT
  5
126
330
1F
100
AcDbEntity
  8
STANDARD
100
AcDbMText
 10
-767.9492984608497
 20
835.9306107998776
 30
0.0
 40
1.127800076479913
 41
2.839882120292794
 71
     7
 72
     1
  1
\fArial;dir
1001
ACAD
1000
MTEXTBEGIN
1070
    73
1070
     2
1070
    44
1040
0.9638554216867471
1000
MTEXTEND
1000
ACAD_MTEXT_DEFINED_HEIGHT_BEGIN
1070
    46
1040
1.141388029208587
1000
ACAD_MTEXT_DEFINED_HEIGHT_END
  0
MTEXT
  5
127
330
1F
100
AcDbEntity
  8
STANDARD
100
AcDbMText
 10
-764.4492984608497
 20
835.9306107998776
 30
0.0
 40
1.127800076479913
 41
3.988064125865718
 71
     7
 72
     1
  1
\fArial;stp+
1001
ACAD
1000
MTEXTBEGIN
1070
    73
1070
     2
1070
    44
1040
0.9638554216867471
1000
MTEXTEND
1000
ACAD_MTEXT_DEFINED_HEIGHT_BEGIN
1070
    46
1040
1.419941060146397
1000
ACAD_MTEXT_DEFINED_HEIGHT_END
  0
MTEXT
  5
128
330
1F
100
AcDbEntity
  8
STANDARD
100
AcDbMText
 10
-760.9492984608497
 20
835.9306107998776
 30
0.0
 40
1.127800076479913
 41
3.104847198501931
 71
     7
 72
     1
  1
\fArial;stp
1001
ACAD
1000
MTEXTBEGIN
1070
    73
1070
     2
1070
    44
1040
0.9638554216867471
1000
MTEXTEND
1000
ACAD_MTEXT_DEFINED_HEIGHT_BEGIN
1070
    46
1040
1.419941060146397
1000
ACAD_MTEXT_DEFINED_HEIGHT_END
  0
MTEXT
  5
129
330
1F
100
AcDbEntity
  8
STANDARD
100
AcDbMText
 10
-718.9492984608497
 20
812.4857725049072
 30
0.0
 40
1.127800076479913
 41
3.104847198501931
 71
     7
 72
     1
  1
\fArial;stp
1001
ACAD
1000
MTEXTBEGIN
1070
    73
1070
     2
1070
    44
1040
0.9638554216867471
1000
MTEXTEND
1000
ACAD_MTEXT_DEFINED_HEIGHT_BEGIN
1070
    46
1040
1.419941060146397
1000
ACAD_MTEXT_DEFINED_HEIGHT_END
  0
MTEXT
  5
12A
330
1F
100
AcDbEntity
  8
STANDARD
100
AcDbMText
 10
-722.4492984608497
 20
812.4857725049072
 30
0.0
 40
1.127800076479913
 41
3.988064125865718
 71
     7
 72
     1
  1
\fArial;stp+
1001
ACAD
1000
MTEXTBEGIN
1070
    73
1070
     2
1070
    44
1040
0.9638554216867471
1000
MTEXTEND
1000
ACAD_MTEXT_DEFINED_HEIGHT_BEGIN
1070
    46
1040
1.419941060146397
1000
ACAD_MTEXT_DEFINED_HEIGHT_END
  0
MTEXT
  5
12B
330
1F
100
AcDbEntity
  8
STANDARD
100
AcDbMText
 10
-725.9492984608497
 20
812.4857725049072
 30
0.0
 40
1.127800076479913
 41
2.839882120292794
 71
     7
 72
     1
  1
\fArial;dir
1001
ACAD
1000
MTEXTBEGIN
1070
    73
1070
     2
1070
    44
1040
0.9638554216867471
1000
MTEXTEND
1000
ACAD_MTEXT_DEFINED_HEIGHT_BEGIN
1070
    46
1040
1.141388029208587
1000
ACAD_MTEXT_DEFINED_HEIGHT_END
  0
MTEXT
  5
12C
330
1F
100
AcDbEntity
  8
STANDARD
100
AcDbMText
 10
-729.4492984608497
 20
812.4857725049072
 30
0.0
 40
1.127800076479913
 41
3.64157133128454
 71
     7
 72
     1
  1
\fArial;dir+
1001
ACAD
1000
MTEXTBEGIN
1070
    73
1070
     2
1070
    44
1040
0.9638554216867471
1000
MTEXTEND
1000
ACAD_MTEXT_DEFINED_HEIGHT_BEGIN
1070
    46
1040
1.141388029208587
1000
ACAD_MTEXT_DEFINED_HEIGHT_END
  0
MTEXT
  5
12D
330
1F
100
AcDbEntity
  8
STANDARD
100
AcDbMText
 10
-708.4492984608497
 20
812.4857725049072
 30
0.0
 40
1.127800076479913
 41
3.64157133128454
 71
     7
 72
     1
  1
\fArial;dir+
1001
ACAD
1000
MTEXTBEGIN
1070
    73
1070
     2
1070
    44
1040
0.9638554216867471
1000
MTEXTEND
1000
ACAD_MTEXT_DEFINED_HEIGHT_BEGIN
1070
    46
1040
1.141388029208587
1000
ACAD_MTEXT_DEFINED_HEIGHT_END
  0
MTEXT
  5
12E
330
1F
100
AcDbEntity
  8
STANDARD
100
AcDbMText
 10
-704.9492984608497
 20
812.4857725049072
 30
0.0
 40
1.127800076479913
 41
2.839882120292794
 71
     7
 72
     1
  1
\fArial;dir
1001
ACAD
1000
MTEXTBEGIN
1070
    73
1070
     2
1070
    44
1040
0.9638554216867471
1000
MTEXTEND
1000
ACAD_MTEXT_DEFINED_HEIGHT_BEGIN
1070
    46
1040
1.141388029208587
1000
ACAD_MTEXT_DEFINED_HEIGHT_END
  0
MTEXT
  5
12F
330
1F
100
AcDbEntity
  8
STANDARD
100
AcDbMText
 10
-701.4492984608497
 20
812.4857725049072
 30
0.0
 40
1.127800076479913
 41
3.988064125865718
 71
     7
 72
     1
  1
\fArial;stp+
1001
ACAD
1000
MTEXTBEGIN
1070
    73
1070
     2
1070
    44
1040
0.9638554216867471
1000
MTEXTEND
1000
ACAD_MTEXT_DEFINED_HEIGHT_BEGIN
1070
    46
1040
1.419941060146397
1000
ACAD_MTEXT_DEFINED_HEIGHT_END
  0
MTEXT
  5
130
330
1F
100
AcDbEntity
  8
STANDARD
100
AcDbMText
 10
-697.9492984608497
 20
812.4857725049072
 30
0.0
 40
1.127800076479913
 41
3.104847198501931
 71
     7
 72
     1
  1
\fArial;stp
1001
ACAD
1000
MTEXTBEGIN
1070
    73
1070
     2
1070
    44
1040
0.9638554216867471
1000
MTEXTEND
1000
ACAD_MTEXT_DEFINED_HEIGHT_BEGIN
1070
    46
1040
1.419941060146397
1000
ACAD_MTEXT_DEFINED_HEIGHT_END
  0
MTEXT
  5
131
330
1F
100
AcDbEntity
  8
STANDARD
100
AcDbMText
 10
-718.9492984608497
 20
822.2239074621336
 30
0.0
 40
1.127800076479913
 41
2.975761647579531
 71
     7
 72
     1
  1
\fArial;spi
1001
ACAD
1000
MTEXTBEGIN
1070
    73
1070
     2
1070
    44
1040
0.9638554216867471
1000
MTEXTEND
1000
ACAD_MTEXT_DEFINED_HEIGHT_BEGIN
1070
    46
1040
1.440322989239408
1000
ACAD_MTEXT_DEFINED_HEIGHT_END
  0
MTEXT
  5
132
330
1F
100
AcDbEntity
  8
STANDARD
100
AcDbMText
 10
-715.4492984608497
 20
822.2239074621336
 30
0.0
 40
1.127800076479913
 41
2.975761647579531
 71
     7
 72
     1
  1
\fArial;spi
1001
ACAD
1000
MTEXTBEGIN
1070
    73
1070
     2
1070
    44
1040
0.9638554216867471
1000
MTEXTEND
1000
ACAD_MTEXT_DEFINED_HEIGHT_BEGIN
1070
    46
1040
1.440322989239408
1000
ACAD_MTEXT_DEFINED_HEIGHT_END
  0
MTEXT
  5
133
330
1F
100
AcDbEntity
  8
STANDARD
100
AcDbMText
 10
-708.4492984608497
 20
822.2239074621336
 30
0.0
 40
1.127800076479913
 41
2.975761647579531
 71
     7
 72
     1
  1
\fArial;spi
1001
ACAD
1000
MTEXTBEGIN
1070
    73
1070
     2
1070
    44
1040
0.9638554216867471
1000
MTEXTEND
1000
ACAD_MTEXT_DEFINED_HEIGHT_BEGIN
1070
    46
1040
1.440322989239408
1000
ACAD_MTEXT_DEFINED_HEIGHT_END
  0
MTEXT
  5
134
330
1F
100
AcDbEntity
  8
STANDARD
100
AcDbMText
 10
-708.4492984608497
 20
817.3886259469587
 30
0.0
 40
1.127800076479913
 41
3.64157133128454
 71
     7
 72
     1
  1
\fArial;dir+
1001
ACAD
1000
MTEXTBEGIN
1070
    73
1070
     2
1070
    44
1040
0.9638554216867471
1000
MTEXTEND
1000
ACAD_MTEXT_DEFINED_HEIGHT_BEGIN
1070
    46
1040
1.141388029208587
1000
ACAD_MTEXT_DEFINED_HEIGHT_END
  0
MTEXT
  5
135
330
1F
100
AcDbEntity
  8
STANDARD
100
AcDbMText
 10
-704.9492984608497
 20
817.3886259469587
 30
0.0
 40
1.127800076479913
 41
2.839882120292794
 71
     7
 72
     1
  1
\fArial;dir
1001
ACAD
1000
MTEXTBEGIN
1070
    73
1070
     2
1070
    44
1040
0.9638554216867471
1000
MTEXTEND
1000
ACAD_MTEXT_DEFINED_HEIGHT_BEGIN
1070
    46
1040
1.141388029208587
1000
ACAD_MTEXT_DEFINED_HEIGHT_END
  0
MTEXT
  5
136
330
1F
100
AcDbEntity
  8
STANDARD
100
AcDbMText
 10
-701.4492984608497
 20
817.3886259469587
 30
0.0
 40
1.127800076479913
 41
3.988064125865718
 71
     7
 72
     1
  1
\fArial;stp+
1001
ACAD
1000
MTEXTBEGIN
1070
    73
1070
     2
1070
    44
1040
0.9638554216867471
1000
MTEXTEND
1000
ACAD_MTEXT_DEFINED_HEIGHT_BEGIN
1070
    46
1040
1.419941060146397
1000
ACAD_MTEXT_DEFINED_HEIGHT_END
  0
MTEXT
  5
137
330
1F
100
AcDbEntity
  8
STANDARD
100
AcDbMText
 10
-697.9492984608497
 20
817.3886259469587
 30
0.0
 40
1.127800076479913
 41
3.104847198501931
 71
     7
 72
     1
  1
\fArial;stp
1001
ACAD
1000
MTEXTBEGIN
1070
    73
1070
     2
1070
    44
1040
0.9638554216867471
1000
MTEXTEND
1000
ACAD_MTEXT_DEFINED_HEIGHT_BEGIN
1070
    46
1040
1.419941060146397
1000
ACAD_MTEXT_DEFINED_HEIGHT_END
  0
MTEXT
  5
138
330
1F
100
AcDbEntity
  8
STANDARD
100
AcDbMText
 10
-768.0125381179563
 20
817.395419923323
 30
0.0
 40
1.127800076479913
 41
3.892948456765002
 71
     7
 72
     1
  1
\fArial;+5V
1001
ACAD
1000
MTEXTBEGIN
1070
    73
1070
     2
1070
    44
1040
0.9638554216867471
1000
MTEXTEND
1000
ACAD_MTEXT_DEFINED_HEIGHT_BEGIN
1070
    46
1040
1.148182005572924
1000
ACAD_MTEXT_DEFINED_HEIGHT_END
  0
MTEXT
  5
139
330
1F
100
AcDbEntity
  8
STANDARD
100
AcDbMText
 10
-768.0125381179563
 20
816.2472379177501
 30
0.0
 40
1.127800076479913
 41
2.133308578401764
 71
     7
 72
     1
  1
\fArial;in
1001
ACAD
1000
MTEXTBEGIN
1070
    73
1070
     2
1070
    44
1040
0.9638554216867471
1000
MTEXTEND
1000
ACAD_MTEXT_DEFINED_HEIGHT_BEGIN
1070
    46
1040
1.127800076479913
1000
ACAD_MTEXT_DEFINED_HEIGHT_END
  0
MTEXT
  5
13A
330
1F
100
AcDbEntity
  8
STANDARD
100
AcDbMText
 10
-764.5125381179563
 20
817.395419923323
 30
0.0
 40
1.127800076479913
 41
3.892948456765002
 71
     7
 72
     1
  1
\fArial;+5V
1001
ACAD
1000
MTEXTBEGIN
1070
    73
1070
     2
1070
    44
1040
0.9638554216867471
1000
MTEXTEND
1000
ACAD_MTEXT_DEFINED_HEIGHT_BEGIN
1070
    46
1040
1.148182005572924
1000
ACAD_MTEXT_DEFINED_HEIGHT_END
  0
MTEXT
  5
13B
330
1F
100
AcDbEntity
  8
STANDARD
100
AcDbMText
 10
-764.5125381179563
 20
816.2472379177501
 30
0.0
 40
1.127800076479913
 41
2.133308578401764
 71
     7
 72
     1
  1
\fArial;in
1001
ACAD
1000
MTEXTBEGIN
1070
    73
1070
     2
1070
    44
1040
0.9638554216867471
1000
MTEXTEND
1000
ACAD_MTEXT_DEFINED_HEIGHT_BEGIN
1070
    46
1040
1.127800076479913
1000
ACAD_MTEXT_DEFINED_HEIGHT_END
  0
MTEXT
  5
13C
330
1F
100
AcDbEntity
  8
STANDARD
100
AcDbMText
 10
-729.4492984608497
 20
817.3886259469587
 30
0.0
 40
1.127800076479913
 41
3.594013496734182
 71
     7
 72
     1
  1
\fArial;enc
1001
ACAD
1000
MTEXTBEGIN
1070
    73
1070
     2
1070
    44
1040
0.9638554216867471
1000
MTEXTEND
1000
ACAD_MTEXT_DEFINED_HEIGHT_BEGIN
1070
    46
1040
0.8492470455421035
1000
ACAD_MTEXT_DEFINED_HEIGHT_END
  0
MTEXT
  5
13D
330
1F
100
AcDbEntity
  8
STANDARD
100
AcDbMText
 10
-725.9492984608497
 20
817.3886259469587
 30
0.0
 40
1.127800076479913
 41
3.594013496734182
 71
     7
 72
     1
  1
\fArial;enc
1001
ACAD
1000
MTEXTBEGIN
1070
    73
1070
     2
1070
    44
1040
0.9638554216867471
1000
MTEXTEND
1000
ACAD_MTEXT_DEFINED_HEIGHT_BEGIN
1070
    46
1040
0.8492470455421035
1000
ACAD_MTEXT_DEFINED_HEIGHT_END
  0
MTEXT
  5
13E
330
1F
100
AcDbEntity
  8
STANDARD
100
AcDbMText
 10
-718.9492984608497
 20
817.3886259469587
 30
0.0
 40
1.127800076479913
 41
3.594013496734182
 71
     7
 72
     1
  1
\fArial;enc
1001
ACAD
1000
MTEXTBEGIN
1070
    73
1070
     2
1070
    44
1040
0.9638554216867471
1000
MTEXTEND
1000
ACAD_MTEXT_DEFINED_HEIGHT_BEGIN
1070
    46
1040
0.8492470455421035
1000
ACAD_MTEXT_DEFINED_HEIGHT_END
  0
MTEXT
  5
13F
330
1F
100
AcDbEntity
  8
STANDARD
100
AcDbMText
 10
-715.4492984608497
 20
817.3886259469587
 30
0.0
 40
1.127800076479913
 41
3.594013496734182
 71
     7
 72
     1
  1
\fArial;enc
1001
ACAD
1000
MTEXTBEGIN
1070
    73
1070
     2
1070
    44
1040
0.9638554216867471
1000
MTEXTEND
1000
ACAD_MTEXT_DEFINED_HEIGHT_BEGIN
1070
    46
1040
0.8492470455421035
1000
ACAD_MTEXT_DEFINED_HEIGHT_END
  0
MTEXT
  5
140
330
1F
100
AcDbEntity
  8
STANDARD
100
AcDbMText
 10
-764.5125381179563
 20
839.6920762127205
 30
0.0
 40
1.127800076479913
 41
2.133308578401764
 71
     7
 72
     1
  1
\fArial;in
1001
ACAD
1000
MTEXTBEGIN
1070
    73
1070
     2
1070
    44
1040
0.9638554216867471
1000
MTEXTEND
1000
ACAD_MTEXT_DEFINED_HEIGHT_BEGIN
1070
    46
1040
1.127800076479913
1000
ACAD_MTEXT_DEFINED_HEIGHT_END
  0
MTEXT
  5
141
330
1F
100
AcDbEntity
  8
STANDARD
100
AcDbMText
 10
-764.5125381179563
 20
840.8402582182933
 30
0.0
 40
1.127800076479913
 41
3.892948456765002
 71
     7
 72
     1
  1
\fArial;+5V
1001
ACAD
1000
MTEXTBEGIN
1070
    73
1070
     2
1070
    44
1040
0.9638554216867471
1000
MTEXTEND
1000
ACAD_MTEXT_DEFINED_HEIGHT_BEGIN
1070
    46
1040
1.148182005572924
1000
ACAD_MTEXT_DEFINED_HEIGHT_END
  0
MTEXT
  5
142
330
1F
100
AcDbEntity
  8
STANDARD
100
AcDbMText
 10
-768.0125381179563
 20
839.6920762127205
 30
0.0
 40
1.127800076479913
 41
2.133308578401764
 71
     7
 72
     1
  1
\fArial;in
1001
ACAD
1000
MTEXTBEGIN
1070
    73
1070
     2
1070
    44
1040
0.9638554216867471
1000
MTEXTEND
1000
ACAD_MTEXT_DEFINED_HEIGHT_BEGIN
1070
    46
1040
1.127800076479913
1000
ACAD_MTEXT_DEFINED_HEIGHT_END
  0
MTEXT
  5
143
330
1F
100
AcDbEntity
  8
STANDARD
100
AcDbMText
 10
-768.0125381179563
 20
840.8402582182933
 30
0.0
 40
1.127800076479913
 41
3.892948456765002
 71
     7
 72
     1
  1
\fArial;+5V
1001
ACAD
1000
MTEXTBEGIN
1070
    73
1070
     2
1070
    44
1040
0.9638554216867471
1000
MTEXTEND
1000
ACAD_MTEXT_DEFINED_HEIGHT_BEGIN
1070
    46
1040
1.148182005572924
1000
ACAD_MTEXT_DEFINED_HEIGHT_END
  0
MTEXT
  5
144
330
1F
100
AcDbEntity
  8
STANDARD
100
AcDbMText
 10
-708.4492984608497
 20
845.668745757104
 30
0.0
 40
1.127800076479913
 41
2.975761647579531
 71
     7
 72
     1
  1
\fArial;spi
1001
ACAD
1000
MTEXTBEGIN
1070
    73
1070
     2
1070
    44
1040
0.9638554216867471
1000
MTEXTEND
1000
ACAD_MTEXT_DEFINED_HEIGHT_BEGIN
1070
    46
1040
1.440322989239408
1000
ACAD_MTEXT_DEFINED_HEIGHT_END
  0
MTEXT
  5
145
330
1F
100
AcDbEntity
  8
STANDARD
100
AcDbMText
 10
-715.4492984608497
 20
845.668745757104
 30
0.0
 40
1.127800076479913
 41
2.975761647579531
 71
     7
 72
     1
  1
\fArial;spi
1001
ACAD
1000
MTEXTBEGIN
1070
    73
1070
     2
1070
    44
1040
0.9638554216867471
1000
MTEXTEND
1000
ACAD_MTEXT_DEFINED_HEIGHT_BEGIN
1070
    46
1040
1.440322989239408
1000
ACAD_MTEXT_DEFINED_HEIGHT_END
  0
MTEXT
  5
146
330
1F
100
AcDbEntity
  8
STANDARD
100
AcDbMText
 10
-718.9492984608497
 20
845.668745757104
 30
0.0
 40
1.127800076479913
 41
2.975761647579531
 71
     7
 72
     1
  1
\fArial;spi
1001
ACAD
1000
MTEXTBEGIN
1070
    73
1070
     2
1070
    44
1040
0.9638554216867471
1000
MTEXTEND
1000
ACAD_MTEXT_DEFINED_HEIGHT_BEGIN
1070
    46
1040
1.440322989239408
1000
ACAD_MTEXT_DEFINED_HEIGHT_END
  0
POLYLINE
  5
147
330
1F
100
AcDbEntity
  8
STANDARD
100
AcDb2dPolyline
 66
     1
 10
0.0
 20
0.0
 30
0.0
 70
     1
  0
VERTEX
  5
148
330
147
100
AcDbEntity
  8
STANDARD
100
AcDbVertex
100
AcDb2dVertex
 10
-740.4661348945205
 20
816.150333508232
 30
0.0
  0
VERTEX
  5
149
330
147
100
AcDbEntity
  8
STANDARD
100
AcDbVertex
100
AcDb2dVertex
 10
-712.4661348945205
 20
816.150333508232
 30
0.0
  0
VERTEX
  5
14A
330
147
100
AcDbEntity
  8
STANDARD
100
AcDbVertex
100
AcDb2dVertex
 10
-712.4661348945205
 20
819.150333508232
 30
0.0
  0
VERTEX
  5
14B
330
147
100
AcDbEntity
  8
STANDARD
100
AcDbVertex
100
AcDb2dVertex
 10
-740.4661348945205
 20
819.150333508232
 30
0.0
  0
SEQEND
  5
14C
330
147
100
AcDbEntity
  8
STANDARD
  0
MTEXT
  5
14D
330
1F
100
AcDbEntity
  8
STANDARD
100
AcDbMText
 10
-704.535829313913
 20
826.5952676610323
 30
0.0
 40
1.127800076479913
 41
2.194454365680795
 71
     7
 72
     1
  1
\fArial;di
1001
ACAD
1000
MTEXTBEGIN
1070
    73
1070
     2
1070
    44
1040
0.9638554216867471
1000
MTEXTEND
1000
ACAD_MTEXT_DEFINED_HEIGHT_BEGIN
1070
    46
1040
1.141388029208587
1000
ACAD_MTEXT_DEFINED_HEIGHT_END
  0
MTEXT
  5
14E
330
1F
100
AcDbEntity
  8
STANDARD
100
AcDbMText
 10
-701.035829313913
 20
826.5952676610323
 30
0.0
 40
1.127800076479913
 41
2.194454365680795
 71
     7
 72
     1
  1
\fArial;di
1001
ACAD
1000
MTEXTBEGIN
1070
    73
1070
     2
1070
    44
1040
0.9638554216867471
1000
MTEXTEND
1000
ACAD_MTEXT_DEFINED_HEIGHT_BEGIN
1070
    46
1040
1.141388029208587
1000
ACAD_MTEXT_DEFINED_HEIGHT_END
  0
MTEXT
  5
14F
330
1F
100
AcDbEntity
  8
STANDARD
100
AcDbMText
 10
-697.535829313913
 20
826.5952676610323
 30
0.0
 40
1.127800076479913
 41
2.194454365680795
 71
     7
 72
     1
  1
\fArial;di
1001
ACAD
1000
MTEXTBEGIN
1070
    73
1070
     2
1070
    44
1040
0.9638554216867471
1000
MTEXTEND
1000
ACAD_MTEXT_DEFINED_HEIGHT_BEGIN
1070
    46
1040
1.141388029208587
1000
ACAD_MTEXT_DEFINED_HEIGHT_END
  0
MTEXT
  5
150
330
1F
100
AcDbEntity
  8
STANDARD
100
AcDbMText
 10
-694.035829313913
 20
826.5952676610323
 30
0.0
 40
1.127800076479913
 41
2.194454365680795
 71
     7
 72
     1
  1
\fArial;di
1001
ACAD
1000
MTEXTBEGIN
1070
    73
1070
     2
1070
    44
1040
0.9638554216867471
1000
MTEXTEND
1000
ACAD_MTEXT_DEFINED_HEIGHT_BEGIN
1070
    46
1040
1.141388029208587
1000
ACAD_MTEXT_DEFINED_HEIGHT_END
  0
MTEXT
  5
151
330
1F
100
AcDbEntity
  8
STANDARD
100
AcDbMText
 10
-750.035829313913
 20
826.5952676610323
 30
0.0
 40
1.127800076479913
 41
2.758354403920753
 71
     7
 72
     1
  1
\fArial;do
1001
ACAD
1000
MTEXTBEGIN
1070
    73
1070
     2
1070
    44
1040
0.9638554216867471
1000
MTEXTEND
1000
ACAD_MTEXT_DEFINED_HEIGHT_BEGIN
1070
    46
1040
1.141388029208587
1000
ACAD_MTEXT_DEFINED_HEIGHT_END
  0
MTEXT
  5
152
330
1F
100
AcDbEntity
  8
STANDARD
100
AcDbMText
 10
-753.5990689710196
 20
826.6020616373966
 30
0.0
 40
1.127800076479913
 41
2.758354403920753
 71
     7
 72
     1
  1
\fArial;do
1001
ACAD
1000
MTEXTBEGIN
1070
    73
1070
     2
1070
    44
1040
0.9638554216867471
1000
MTEXTEND
1000
ACAD_MTEXT_DEFINED_HEIGHT_BEGIN
1070
    46
1040
1.141388029208587
1000
ACAD_MTEXT_DEFINED_HEIGHT_END
  0
MTEXT
  5
153
330
1F
100
AcDbEntity
  8
STANDARD
100
AcDbMText
 10
-708.035829313913
 20
826.5952676610323
 30
0.0
 40
1.127800076479913
 41
2.194454365680795
 71
     7
 72
     1
  1
\fArial;di
1001
ACAD
1000
MTEXTBEGIN
1070
    73
1070
     2
1070
    44
1040
0.9638554216867471
1000
MTEXTEND
1000
ACAD_MTEXT_DEFINED_HEIGHT_BEGIN
1070
    46
1040
1.141388029208587
1000
ACAD_MTEXT_DEFINED_HEIGHT_END
  0
MTEXT
  5
154
330
1F
100
AcDbEntity
  8
STANDARD
100
AcDbMText
 10
-711.535829313913
 20
826.5952676610323
 30
0.0
 40
1.127800076479913
 41
2.194454365680795
 71
     7
 72
     1
  1
\fArial;di
1001
ACAD
1000
MTEXTBEGIN
1070
    73
1070
     2
1070
    44
1040
0.9638554216867471
1000
MTEXTEND
1000
ACAD_MTEXT_DEFINED_HEIGHT_BEGIN
1070
    46
1040
1.141388029208587
1000
ACAD_MTEXT_DEFINED_HEIGHT_END
  0
MTEXT
  5
155
330
1F
100
AcDbEntity
  8
STANDARD
100
AcDbMText
 10
-715.035829313913
 20
826.5952676610323
 30
0.0
 40
1.127800076479913
 41
2.194454365680795
 71
     7
 72
     1
  1
\fArial;di
1001
ACAD
1000
MTEXTBEGIN
1070
    73
1070
     2
1070
    44
1040
0.9638554216867471
1000
MTEXTEND
1000
ACAD_MTEXT_DEFINED_HEIGHT_BEGIN
1070
    46
1040
1.141388029208587
1000
ACAD_MTEXT_DEFINED_HEIGHT_END
  0
MTEXT
  5
156
330
1F
100
AcDbEntity
  8
STANDARD
100
AcDbMText
 10
-718.535829313913
 20
826.5952676610323
 30
0.0
 40
1.127800076479913
 41
2.194454365680795
 71
     7
 72
     1
  1
\fArial;di
1001
ACAD
1000
MTEXTBEGIN
1070
    73
1070
     2
1070
    44
1040
0.9638554216867471
1000
MTEXTEND
1000
ACAD_MTEXT_DEFINED_HEIGHT_BEGIN
1070
    46
1040
1.141388029208587
1000
ACAD_MTEXT_DEFINED_HEIGHT_END
  0
MTEXT
  5
157
330
1F
100
AcDbEntity
  8
STANDARD
100
AcDbMText
 10
-722.035829313913
 20
826.5952676610323
 30
0.0
 40
1.127800076479913
 41
2.194454365680795
 71
     7
 72
     1
  1
\fArial;di
1001
ACAD
1000
MTEXTBEGIN
1070
    73
1070
     2
1070
    44
1040
0.9638554216867471
1000
MTEXTEND
1000
ACAD_MTEXT_DEFINED_HEIGHT_BEGIN
1070
    46
1040
1.141388029208587
1000
ACAD_MTEXT_DEFINED_HEIGHT_END
  0
MTEXT
  5
158
330
1F
100
AcDbEntity
  8
STANDARD
100
AcDbMText
 10
-725.535829313913
 20
826.5952676610323
 30
0.0
 40
1.127800076479913
 41
2.194454365680795
 71
     7
 72
     1
  1
\fArial;di
1001
ACAD
1000
MTEXTBEGIN
1070
    73
1070
     2
1070
    44
1040
0.9638554216867471
1000
MTEXTEND
1000
ACAD_MTEXT_DEFINED_HEIGHT_BEGIN
1070
    46
1040
1.141388029208587
1000
ACAD_MTEXT_DEFINED_HEIGHT_END
  0
MTEXT
  5
159
330
1F
100
AcDbEntity
  8
STANDARD
100
AcDbMText
 10
-729.035829313913
 20
826.5952676610323
 30
0.0
 40
1.127800076479913
 41
2.194454365680795
 71
     7
 72
     1
  1
\fArial;di
1001
ACAD
1000
MTEXTBEGIN
1070
    73
1070
     2
1070
    44
1040
0.9638554216867471
1000
MTEXTEND
1000
ACAD_MTEXT_DEFINED_HEIGHT_BEGIN
1070
    46
1040
1.141388029208587
1000
ACAD_MTEXT_DEFINED_HEIGHT_END
  0
MTEXT
  5
15A
330
1F
100
AcDbEntity
  8
STANDARD
100
AcDbMText
 10
-732.535829313913
 20
826.5952676610323
 30
0.0
 40
1.127800076479913
 41
2.194454365680795
 71
     7
 72
     1
  1
\fArial;di
1001
ACAD
1000
MTEXTBEGIN
1070
    73
1070
     2
1070
    44
1040
0.9638554216867471
1000
MTEXTEND
1000
ACAD_MTEXT_DEFINED_HEIGHT_BEGIN
1070
    46
1040
1.141388029208587
1000
ACAD_MTEXT_DEFINED_HEIGHT_END
  0
MTEXT
  5
15B
330
1F
100
AcDbEntity
  8
STANDARD
100
AcDbMText
 10
-736.035829313913
 20
826.5952676610323
 30
0.0
 40
1.127800076479913
 41
2.194454365680795
 71
     7
 72
     1
  1
\fArial;di
1001
ACAD
1000
MTEXTBEGIN
1070
    73
1070
     2
1070
    44
1040
0.9638554216867471
1000
MTEXTEND
1000
ACAD_MTEXT_DEFINED_HEIGHT_BEGIN
1070
    46
1040
1.141388029208587
1000
ACAD_MTEXT_DEFINED_HEIGHT_END
  0
MTEXT
  5
15C
330
1F
100
AcDbEntity
  8
STANDARD
100
AcDbMText
 10
-739.535829313913
 20
826.5952676610323
 30
0.0
 40
1.127800076479913
 41
2.194454365680795
 71
     7
 72
     1
  1
\fArial;di
1001
ACAD
1000
MTEXTBEGIN
1070
    73
1070
     2
1070
    44
1040
0.9638554216867471
1000
MTEXTEND
1000
ACAD_MTEXT_DEFINED_HEIGHT_BEGIN
1070
    46
1040
1.141388029208587
1000
ACAD_MTEXT_DEFINED_HEIGHT_END
  0
MTEXT
  5
15D
330
1F
100
AcDbEntity
  8
STANDARD
100
AcDbMText
 10
-743.035829313913
 20
826.5952676610323
 30
0.0
 40
1.127800076479913
 41
2.194454365680795
 71
     7
 72
     1
  1
\fArial;di
1001
ACAD
1000
MTEXTBEGIN
1070
    73
1070
     2
1070
    44
1040
0.9638554216867471
1000
MTEXTEND
1000
ACAD_MTEXT_DEFINED_HEIGHT_BEGIN
1070
    46
1040
1.141388029208587
1000
ACAD_MTEXT_DEFINED_HEIGHT_END
  0
MTEXT
  5
15E
330
1F
100
AcDbEntity
  8
STANDARD
100
AcDbMText
 10
-746.535829313913
 20
826.5952676610323
 30
0.0
 40
1.127800076479913
 41
2.194454365680795
 71
     7
 72
     1
  1
\fArial;di
1001
ACAD
1000
MTEXTBEGIN
1070
    73
1070
     2
1070
    44
1040
0.9638554216867471
1000
MTEXTEND
1000
ACAD_MTEXT_DEFINED_HEIGHT_BEGIN
1070
    46
1040
1.141388029208587
1000
ACAD_MTEXT_DEFINED_HEIGHT_END
  0
MTEXT
  5
15F
330
1F
100
AcDbEntity
  8
STANDARD
100
AcDbMText
 10
-757.0990689710196
 20
826.6020616373966
 30
0.0
 40
1.127800076479913
 41
2.758354403920753
 71
     7
 72
     1
  1
\fArial;do
1001
ACAD
1000
MTEXTBEGIN
1070
    73
1070
     2
1070
    44
1040
0.9638554216867471
1000
MTEXTEND
1000
ACAD_MTEXT_DEFINED_HEIGHT_BEGIN
1070
    46
1040
1.141388029208587
1000
ACAD_MTEXT_DEFINED_HEIGHT_END
  0
MTEXT
  5
160
330
1F
100
AcDbEntity
  8
STANDARD
100
AcDbMText
 10
-760.5990689710196
 20
826.6020616373966
 30
0.0
 40
1.127800076479913
 41
2.758354403920753
 71
     7
 72
     1
  1
\fArial;do
1001
ACAD
1000
MTEXTBEGIN
1070
    73
1070
     2
1070
    44
1040
0.9638554216867471
1000
MTEXTEND
1000
ACAD_MTEXT_DEFINED_HEIGHT_BEGIN
1070
    46
1040
1.141388029208587
1000
ACAD_MTEXT_DEFINED_HEIGHT_END
  0
MTEXT
  5
161
330
1F
100
AcDbEntity
  8
STANDARD
100
AcDbMText
 10
-764.0990689710196
 20
826.6020616373966
 30
0.0
 40
1.127800076479913
 41
2.758354403920753
 71
     7
 72
     1
  1
\fArial;do
1001
ACAD
1000
MTEXTBEGIN
1070
    73
1070
     2
1070
    44
1040
0.9638554216867471
1000
MTEXTEND
1000
ACAD_MTEXT_DEFINED_HEIGHT_BEGIN
1070
    46
1040
1.141388029208587
1000
ACAD_MTEXT_DEFINED_HEIGHT_END
  0
MTEXT
  5
162
330
1F
100
AcDbEntity
  8
STANDARD
100
AcDbMText
 10
-767.5990689710196
 20
826.6020616373966
 30
0.0
 40
1.127800076479913
 41
2.758354403920753
 71
     7
 72
     1
  1
\fArial;do
1001
ACAD
1000
MTEXTBEGIN
1070
    73
1070
     2
1070
    44
1040
0.9638554216867471
1000
MTEXTEND
1000
ACAD_MTEXT_DEFINED_HEIGHT_BEGIN
1070
    46
1040
1.141388029208587
1000
ACAD_MTEXT_DEFINED_HEIGHT_END
  0
MTEXT
  5
163
330
1F
100
AcDbEntity
  8
STANDARD
100
AcDbMText
 10
-771.0990689710196
 20
826.6020616373966
 30
0.0
 40
1.127800076479913
 41
2.758354403920753
 71
     7
 72
     1
  1
\fArial;do
1001
ACAD
1000
MTEXTBEGIN
1070
    73
1070
     2
1070
    44
1040
0.9638554216867471
1000
MTEXTEND
1000
ACAD_MTEXT_DEFINED_HEIGHT_BEGIN
1070
    46
1040
1.141388029208587
1000
ACAD_MTEXT_DEFINED_HEIGHT_END
  0
MTEXT
  5
164
330
1F
100
AcDbEntity
  8
STANDARD
100
AcDbMText
 10
-774.5990689710196
 20
826.6020616373966
 30
0.0
 40
1.127800076479913
 41
2.758354403920753
 71
     7
 72
     1
  1
\fArial;do
1001
ACAD
1000
MTEXTBEGIN
1070
    73
1070
     2
1070
    44
1040
0.9638554216867471
1000
MTEXTEND
1000
ACAD_MTEXT_DEFINED_HEIGHT_BEGIN
1070
    46
1040
1.141388029208587
1000
ACAD_MTEXT_DEFINED_HEIGHT_END
  0
MTEXT
  5
165
330
1F
100
AcDbEntity
  8
STANDARD
100
AcDbMText
 10
-774.5990689710196
 20
831.0599857230801
 30
0.0
 40
1.127800076479913
 41
2.758354403920753
 71
     7
 72
     1
  1
\fArial;do
1001
ACAD
1000
MTEXTBEGIN
1070
    73
1070
     2
1070
    44
1040
0.9638554216867471
1000
MTEXTEND
1000
ACAD_MTEXT_DEFINED_HEIGHT_BEGIN
1070
    46
1040
1.141388029208587
1000
ACAD_MTEXT_DEFINED_HEIGHT_END
  0
MTEXT
  5
166
330
1F
100
AcDbEntity
  8
STANDARD
100
AcDbMText
 10
-771.0990689710196
 20
831.0599857230801
 30
0.0
 40
1.127800076479913
 41
2.758354403920753
 71
     7
 72
     1
  1
\fArial;do
1001
ACAD
1000
MTEXTBEGIN
1070
    73
1070
     2
1070
    44
1040
0.9638554216867471
1000
MTEXTEND
1000
ACAD_MTEXT_DEFINED_HEIGHT_BEGIN
1070
    46
1040
1.141388029208587
1000
ACAD_MTEXT_DEFINED_HEIGHT_END
  0
MTEXT
  5
167
330
1F
100
AcDbEntity
  8
STANDARD
100
AcDbMText
 10
-767.5990689710196
 20
831.0599857230801
 30
0.0
 40
1.127800076479913
 41
2.758354403920753
 71
     7
 72
     1
  1
\fArial;do
1001
ACAD
1000
MTEXTBEGIN
1070
    73
1070
     2
1070
    44
1040
0.9638554216867471
1000
MTEXTEND
1000
ACAD_MTEXT_DEFINED_HEIGHT_BEGIN
1070
    46
1040
1.141388029208587
1000
ACAD_MTEXT_DEFINED_HEIGHT_END
  0
MTEXT
  5
168
330
1F
100
AcDbEntity
  8
STANDARD
100
AcDbMText
 10
-764.0990689710196
 20
831.0599857230801
 30
0.0
 40
1.127800076479913
 41
2.758354403920753
 71
     7
 72
     1
  1
\fArial;do
1001
ACAD
1000
MTEXTBEGIN
1070
    73
1070
     2
1070
    44
1040
0.9638554216867471
1000
MTEXTEND
1000
ACAD_MTEXT_DEFINED_HEIGHT_BEGIN
1070
    46
1040
1.141388029208587
1000
ACAD_MTEXT_DEFINED_HEIGHT_END
  0
MTEXT
  5
169
330
1F
100
AcDbEntity
  8
STANDARD
100
AcDbMText
 10
-760.5990689710196
 20
831.0599857230801
 30
0.0
 40
1.127800076479913
 41
2.758354403920753
 71
     7
 72
     1
  1
\fArial;do
1001
ACAD
1000
MTEXTBEGIN
1070
    73
1070
     2
1070
    44
1040
0.9638554216867471
1000
MTEXTEND
1000
ACAD_MTEXT_DEFINED_HEIGHT_BEGIN
1070
    46
1040
1.141388029208587
1000
ACAD_MTEXT_DEFINED_HEIGHT_END
  0
MTEXT
  5
16A
330
1F
100
AcDbEntity
  8
STANDARD
100
AcDbMText
 10
-757.0990689710196
 20
831.0599857230801
 30
0.0
 40
1.127800076479913
 41
2.758354403920753
 71
     7
 72
     1
  1
\fArial;do
1001
ACAD
1000
MTEXTBEGIN
1070
    73
1070
     2
1070
    44
1040
0.9638554216867471
1000
MTEXTEND
1000
ACAD_MTEXT_DEFINED_HEIGHT_BEGIN
1070
    46
1040
1.141388029208587
1000
ACAD_MTEXT_DEFINED_HEIGHT_END
  0
MTEXT
  5
16B
330
1F
100
AcDbEntity
  8
STANDARD
100
AcDbMText
 10
-746.535829313913
 20
831.0531917467158
 30
0.0
 40
1.127800076479913
 41
2.194454365680795
 71
     7
 72
     1
  1
\fArial;di
1001
ACAD
1000
MTEXTBEGIN
1070
    73
1070
     2
1070
    44
1040
0.9638554216867471
1000
MTEXTEND
1000
ACAD_MTEXT_DEFINED_HEIGHT_BEGIN
1070
    46
1040
1.141388029208587
1000
ACAD_MTEXT_DEFINED_HEIGHT_END
  0
MTEXT
  5
16C
330
1F
100
AcDbEntity
  8
STANDARD
100
AcDbMText
 10
-743.035829313913
 20
831.0531917467158
 30
0.0
 40
1.127800076479913
 41
2.194454365680795
 71
     7
 72
     1
  1
\fArial;di
1001
ACAD
1000
MTEXTBEGIN
1070
    73
1070
     2
1070
    44
1040
0.9638554216867471
1000
MTEXTEND
1000
ACAD_MTEXT_DEFINED_HEIGHT_BEGIN
1070
    46
1040
1.141388029208587
1000
ACAD_MTEXT_DEFINED_HEIGHT_END
  0
MTEXT
  5
16D
330
1F
100
AcDbEntity
  8
STANDARD
100
AcDbMText
 10
-739.535829313913
 20
831.0531917467158
 30
0.0
 40
1.127800076479913
 41
2.194454365680795
 71
     7
 72
     1
  1
\fArial;di
1001
ACAD
1000
MTEXTBEGIN
1070
    73
1070
     2
1070
    44
1040
0.9638554216867471
1000
MTEXTEND
1000
ACAD_MTEXT_DEFINED_HEIGHT_BEGIN
1070
    46
1040
1.141388029208587
1000
ACAD_MTEXT_DEFINED_HEIGHT_END
  0
MTEXT
  5
16E
330
1F
100
AcDbEntity
  8
STANDARD
100
AcDbMText
 10
-736.035829313913
 20
831.0531917467158
 30
0.0
 40
1.127800076479913
 41
2.194454365680795
 71
     7
 72
     1
  1
\fArial;di
1001
ACAD
1000
MTEXTBEGIN
1070
    73
1070
     2
1070
    44
1040
0.9638554216867471
1000
MTEXTEND
1000
ACAD_MTEXT_DEFINED_HEIGHT_BEGIN
1070
    46
1040
1.141388029208587
1000
ACAD_MTEXT_DEFINED_HEIGHT_END
  0
MTEXT
  5
16F
330
1F
100
AcDbEntity
  8
STANDARD
100
AcDbMText
 10
-732.535829313913
 20
831.0531917467158
 30
0.0
 40
1.127800076479913
 41
2.194454365680795
 71
     7
 72
     1
  1
\fArial;di
1001
ACAD
1000
MTEXTBEGIN
1070
    73
1070
     2
1070
    44
1040
0.9638554216867471
1000
MTEXTEND
1000
ACAD_MTEXT_DEFINED_HEIGHT_BEGIN
1070
    46
1040
1.141388029208587
1000
ACAD_MTEXT_DEFINED_HEIGHT_END
  0
MTEXT
  5
170
330
1F
100
AcDbEntity
  8
STANDARD
100
AcDbMText
 10
-729.035829313913
 20
831.0531917467158
 30
0.0
 40
1.127800076479913
 41
2.194454365680795
 71
     7
 72
     1
  1
\fArial;di
1001
ACAD
1000
MTEXTBEGIN
1070
    73
1070
     2
1070
    44
1040
0.9638554216867471
1000
MTEXTEND
1000
ACAD_MTEXT_DEFINED_HEIGHT_BEGIN
1070
    46
1040
1.141388029208587
1000
ACAD_MTEXT_DEFINED_HEIGHT_END
  0
MTEXT
  5
171
330
1F
100
AcDbEntity
  8
STANDARD
100
AcDbMText
 10
-725.535829313913
 20
831.0531917467158
 30
0.0
 40
1.127800076479913
 41
2.194454365680795
 71
     7
 72
     1
  1
\fArial;di
1001
ACAD
1000
MTEXTBEGIN
1070
    73
1070
     2
1070
    44
1040
0.9638554216867471
1000
MTEXTEND
1000
ACAD_MTEXT_DEFINED_HEIGHT_BEGIN
1070
    46
1040
1.141388029208587
1000
ACAD_MTEXT_DEFINED_HEIGHT_END
  0
MTEXT
  5
172
330
1F
100
AcDbEntity
  8
STANDARD
100
AcDbMText
 10
-722.035829313913
 20
831.0531917467158
 30
0.0
 40
1.127800076479913
 41
2.194454365680795
 71
     7
 72
     1
  1
\fArial;di
1001
ACAD
1000
MTEXTBEGIN
1070
    73
1070
     2
1070
    44
1040
0.9638554216867471
1000
MTEXTEND
1000
ACAD_MTEXT_DEFINED_HEIGHT_BEGIN
1070
    46
1040
1.141388029208587
1000
ACAD_MTEXT_DEFINED_HEIGHT_END
  0
MTEXT
  5
173
330
1F
100
AcDbEntity
  8
STANDARD
100
AcDbMText
 10
-718.535829313913
 20
831.0531917467158
 30
0.0
 40
1.127800076479913
 41
2.194454365680795
 71
     7
 72
     1
  1
\fArial;di
1001
ACAD
1000
MTEXTBEGIN
1070
    73
1070
     2
1070
    44
1040
0.9638554216867471
1000
MTEXTEND
1000
ACAD_MTEXT_DEFINED_HEIGHT_BEGIN
1070
    46
1040
1.141388029208587
1000
ACAD_MTEXT_DEFINED_HEIGHT_END
  0
MTEXT
  5
174
330
1F
100
AcDbEntity
  8
STANDARD
100
AcDbMText
 10
-715.035829313913
 20
831.0531917467158
 30
0.0
 40
1.127800076479913
 41
2.194454365680795
 71
     7
 72
     1
  1
\fArial;di
1001
ACAD
1000
MTEXTBEGIN
1070
    73
1070
     2
1070
    44
1040
0.9638554216867471
1000
MTEXTEND
1000
ACAD_MTEXT_DEFINED_HEIGHT_BEGIN
1070
    46
1040
1.141388029208587
1000
ACAD_MTEXT_DEFINED_HEIGHT_END
  0
MTEXT
  5
175
330
1F
100
AcDbEntity
  8
STANDARD
100
AcDbMText
 10
-711.535829313913
 20
831.0531917467158
 30
0.0
 40
1.127800076479913
 41
2.194454365680795
 71
     7
 72
     1
  1
\fArial;di
1001
ACAD
1000
MTEXTBEGIN
1070
    73
1070
     2
1070
    44
1040
0.9638554216867471
1000
MTEXTEND
1000
ACAD_MTEXT_DEFINED_HEIGHT_BEGIN
1070
    46
1040
1.141388029208587
1000
ACAD_MTEXT_DEFINED_HEIGHT_END
  0
MTEXT
  5
176
330
1F
100
AcDbEntity
  8
STANDARD
100
AcDbMText
 10
-708.035829313913
 20
831.0531917467158
 30
0.0
 40
1.127800076479913
 41
2.194454365680795
 71
     7
 72
     1
  1
\fArial;di
1001
ACAD
1000
MTEXTBEGIN
1070
    73
1070
     2
1070
    44
1040
0.9638554216867471
1000
MTEXTEND
1000
ACAD_MTEXT_DEFINED_HEIGHT_BEGIN
1070
    46
1040
1.141388029208587
1000
ACAD_MTEXT_DEFINED_HEIGHT_END
  0
MTEXT
  5
177
330
1F
100
AcDbEntity
  8
STANDARD
100
AcDbMText
 10
-694.0990689710196
 20
831.0599857230801
 30
0.0
 40
1.127800076479913
 41
2.187660389316458
 71
     7
 72
     1
  1
\fArial;ai
1001
ACAD
1000
MTEXTBEGIN
1070
    73
1070
     2
1070
    44
1040
0.9638554216867471
1000
MTEXTEND
1000
ACAD_MTEXT_DEFINED_HEIGHT_BEGIN
1070
    46
1040
1.141388029208587
1000
ACAD_MTEXT_DEFINED_HEIGHT_END
  0
MTEXT
  5
178
330
1F
100
AcDbEntity
  8
STANDARD
100
AcDbMText
 10
-697.5990689710196
 20
831.0599857230801
 30
0.0
 40
1.127800076479913
 41
2.187660389316458
 71
     7
 72
     1
  1
\fArial;ai
1001
ACAD
1000
MTEXTBEGIN
1070
    73
1070
     2
1070
    44
1040
0.9638554216867471
1000
MTEXTEND
1000
ACAD_MTEXT_DEFINED_HEIGHT_BEGIN
1070
    46
1040
1.141388029208587
1000
ACAD_MTEXT_DEFINED_HEIGHT_END
  0
MTEXT
  5
179
330
1F
100
AcDbEntity
  8
STANDARD
100
AcDbMText
 10
-701.0990689710196
 20
831.0599857230801
 30
0.0
 40
1.127800076479913
 41
2.187660389316458
 71
     7
 72
     1
  1
\fArial;ai
1001
ACAD
1000
MTEXTBEGIN
1070
    73
1070
     2
1070
    44
1040
0.9638554216867471
1000
MTEXTEND
1000
ACAD_MTEXT_DEFINED_HEIGHT_BEGIN
1070
    46
1040
1.141388029208587
1000
ACAD_MTEXT_DEFINED_HEIGHT_END
  0
MTEXT
  5
17A
330
1F
100
AcDbEntity
  8
STANDARD
100
AcDbMText
 10
-704.5990689710196
 20
831.0599857230801
 30
0.0
 40
1.127800076479913
 41
2.187660389316458
 71
     7
 72
     1
  1
\fArial;ai
1001
ACAD
1000
MTEXTBEGIN
1070
    73
1070
     2
1070
    44
1040
0.9638554216867471
1000
MTEXTEND
1000
ACAD_MTEXT_DEFINED_HEIGHT_BEGIN
1070
    46
1040
1.141388029208587
1000
ACAD_MTEXT_DEFINED_HEIGHT_END
  0
MTEXT
  5
17B
330
1F
100
AcDbEntity
  8
STANDARD
100
AcDbMText
 10
-753.5990689710196
 20
831.0599857230801
 30
0.0
 40
1.127800076479913
 41
2.758354403920753
 71
     7
 72
     1
  1
\fArial;do
1001
ACAD
1000
MTEXTBEGIN
1070
    73
1070
     2
1070
    44
1040
0.9638554216867471
1000
MTEXTEND
1000
ACAD_MTEXT_DEFINED_HEIGHT_BEGIN
1070
    46
1040
1.141388029208587
1000
ACAD_MTEXT_DEFINED_HEIGHT_END
  0
MTEXT
  5
17C
330
1F
100
AcDbEntity
  8
STANDARD
100
AcDbMText
 10
-750.035829313913
 20
831.0531917467158
 30
0.0
 40
1.127800076479913
 41
2.758354403920753
 71
     7
 72
     1
  1
\fArial;do
1001
ACAD
1000
MTEXTBEGIN
1070
    73
1070
     2
1070
    44
1040
0.9638554216867471
1000
MTEXTEND
1000
ACAD_MTEXT_DEFINED_HEIGHT_BEGIN
1070
    46
1040
1.141388029208587
1000
ACAD_MTEXT_DEFINED_HEIGHT_END
  0
MTEXT
  5
17D
330
1F
100
AcDbEntity
  8
STANDARD
100
AcDbMText
 10
-750.035829313913
 20
854.4980300416862
 30
0.0
 40
1.127800076479913
 41
2.758354403920753
 71
     7
 72
     1
  1
\fArial;do
1001
ACAD
1000
MTEXTBEGIN
1070
    73
1070
     2
1070
    44
1040
0.9638554216867471
1000
MTEXTEND
1000
ACAD_MTEXT_DEFINED_HEIGHT_BEGIN
1070
    46
1040
1.141388029208587
1000
ACAD_MTEXT_DEFINED_HEIGHT_END
  0
MTEXT
  5
17E
330
1F
100
AcDbEntity
  8
STANDARD
100
AcDbMText
 10
-753.5990689710196
 20
854.5048240180505
 30
0.0
 40
1.127800076479913
 41
2.758354403920753
 71
     7
 72
     1
  1
\fArial;do
1001
ACAD
1000
MTEXTBEGIN
1070
    73
1070
     2
1070
    44
1040
0.9638554216867471
1000
MTEXTEND
1000
ACAD_MTEXT_DEFINED_HEIGHT_BEGIN
1070
    46
1040
1.141388029208587
1000
ACAD_MTEXT_DEFINED_HEIGHT_END
  0
MTEXT
  5
17F
330
1F
100
AcDbEntity
  8
STANDARD
100
AcDbMText
 10
-704.5990689710196
 20
854.5048240180505
 30
0.0
 40
1.127800076479913
 41
2.187660389316458
 71
     7
 72
     1
  1
\fArial;ai
1001
ACAD
1000
MTEXTBEGIN
1070
    73
1070
     2
1070
    44
1040
0.9638554216867471
1000
MTEXTEND
1000
ACAD_MTEXT_DEFINED_HEIGHT_BEGIN
1070
    46
1040
1.141388029208587
1000
ACAD_MTEXT_DEFINED_HEIGHT_END
  0
MTEXT
  5
180
330
1F
100
AcDbEntity
  8
STANDARD
100
AcDbMText
 10
-701.0990689710196
 20
854.5048240180505
 30
0.0
 40
1.127800076479913
 41
2.187660389316458
 71
     7
 72
     1
  1
\fArial;ai
1001
ACAD
1000
MTEXTBEGIN
1070
    73
1070
     2
1070
    44
1040
0.9638554216867471
1000
MTEXTEND
1000
ACAD_MTEXT_DEFINED_HEIGHT_BEGIN
1070
    46
1040
1.141388029208587
1000
ACAD_MTEXT_DEFINED_HEIGHT_END
  0
MTEXT
  5
181
330
1F
100
AcDbEntity
  8
STANDARD
100
AcDbMText
 10
-697.5990689710196
 20
854.5048240180505
 30
0.0
 40
1.127800076479913
 41
2.187660389316458
 71
     7
 72
     1
  1
\fArial;ai
1001
ACAD
1000
MTEXTBEGIN
1070
    73
1070
     2
1070
    44
1040
0.9638554216867471
1000
MTEXTEND
1000
ACAD_MTEXT_DEFINED_HEIGHT_BEGIN
1070
    46
1040
1.141388029208587
1000
ACAD_MTEXT_DEFINED_HEIGHT_END
  0
MTEXT
  5
182
330
1F
100
AcDbEntity
  8
STANDARD
100
AcDbMText
 10
-694.0990689710196
 20
854.5048240180505
 30
0.0
 40
1.127800076479913
 41
2.187660389316458
 71
     7
 72
     1
  1
\fArial;ai
1001
ACAD
1000
MTEXTBEGIN
1070
    73
1070
     2
1070
    44
1040
0.9638554216867471
1000
MTEXTEND
1000
ACAD_MTEXT_DEFINED_HEIGHT_BEGIN
1070
    46
1040
1.141388029208587
1000
ACAD_MTEXT_DEFINED_HEIGHT_END
  0
MTEXT
  5
183
330
1F
100
AcDbEntity
  8
STANDARD
100
AcDbMText
 10
-708.035829313913
 20
854.4980300416862
 30
0.0
 40
1.127800076479913
 41
2.194454365680795
 71
     7
 72
     1
  1
\fArial;di
1001
ACAD
1000
MTEXTBEGIN
1070
    73
1070
     2
1070
    44
1040
0.9638554216867471
1000
MTEXTEND
1000
ACAD_MTEXT_DEFINED_HEIGHT_BEGIN
1070
    46
1040
1.141388029208587
1000
ACAD_MTEXT_DEFINED_HEIGHT_END
  0
MTEXT
  5
184
330
1F
100
AcDbEntity
  8
STANDARD
100
AcDbMText
 10
-711.535829313913
 20
854.4980300416862
 30
0.0
 40
1.127800076479913
 41
2.194454365680795
 71
     7
 72
     1
  1
\fArial;di
1001
ACAD
1000
MTEXTBEGIN
1070
    73
1070
     2
1070
    44
1040
0.9638554216867471
1000
MTEXTEND
1000
ACAD_MTEXT_DEFINED_HEIGHT_BEGIN
1070
    46
1040
1.141388029208587
1000
ACAD_MTEXT_DEFINED_HEIGHT_END
  0
MTEXT
  5
185
330
1F
100
AcDbEntity
  8
STANDARD
100
AcDbMText
 10
-715.035829313913
 20
854.4980300416862
 30
0.0
 40
1.127800076479913
 41
2.194454365680795
 71
     7
 72
     1
  1
\fArial;di
1001
ACAD
1000
MTEXTBEGIN
1070
    73
1070
     2
1070
    44
1040
0.9638554216867471
1000
MTEXTEND
1000
ACAD_MTEXT_DEFINED_HEIGHT_BEGIN
1070
    46
1040
1.141388029208587
1000
ACAD_MTEXT_DEFINED_HEIGHT_END
  0
MTEXT
  5
186
330
1F
100
AcDbEntity
  8
STANDARD
100
AcDbMText
 10
-718.535829313913
 20
854.4980300416862
 30
0.0
 40
1.127800076479913
 41
2.194454365680795
 71
     7
 72
     1
  1
\fArial;di
1001
ACAD
1000
MTEXTBEGIN
1070
    73
1070
     2
1070
    44
1040
0.9638554216867471
1000
MTEXTEND
1000
ACAD_MTEXT_DEFINED_HEIGHT_BEGIN
1070
    46
1040
1.141388029208587
1000
ACAD_MTEXT_DEFINED_HEIGHT_END
  0
MTEXT
  5
187
330
1F
100
AcDbEntity
  8
STANDARD
100
AcDbMText
 10
-722.035829313913
 20
854.4980300416862
 30
0.0
 40
1.127800076479913
 41
2.194454365680795
 71
     7
 72
     1
  1
\fArial;di
1001
ACAD
1000
MTEXTBEGIN
1070
    73
1070
     2
1070
    44
1040
0.9638554216867471
1000
MTEXTEND
1000
ACAD_MTEXT_DEFINED_HEIGHT_BEGIN
1070
    46
1040
1.141388029208587
1000
ACAD_MTEXT_DEFINED_HEIGHT_END
  0
MTEXT
  5
188
330
1F
100
AcDbEntity
  8
STANDARD
100
AcDbMText
 10
-725.535829313913
 20
854.4980300416862
 30
0.0
 40
1.127800076479913
 41
2.194454365680795
 71
     7
 72
     1
  1
\fArial;di
1001
ACAD
1000
MTEXTBEGIN
1070
    73
1070
     2
1070
    44
1040
0.9638554216867471
1000
MTEXTEND
1000
ACAD_MTEXT_DEFINED_HEIGHT_BEGIN
1070
    46
1040
1.141388029208587
1000
ACAD_MTEXT_DEFINED_HEIGHT_END
  0
MTEXT
  5
189
330
1F
100
AcDbEntity
  8
STANDARD
100
AcDbMText
 10
-729.035829313913
 20
854.4980300416862
 30
0.0
 40
1.127800076479913
 41
2.194454365680795
 71
     7
 72
     1
  1
\fArial;di
1001
ACAD
1000
MTEXTBEGIN
1070
    73
1070
     2
1070
    44
1040
0.9638554216867471
1000
MTEXTEND
1000
ACAD_MTEXT_DEFINED_HEIGHT_BEGIN
1070
    46
1040
1.141388029208587
1000
ACAD_MTEXT_DEFINED_HEIGHT_END
  0
MTEXT
  5
18A
330
1F
100
AcDbEntity
  8
STANDARD
100
AcDbMText
 10
-732.535829313913
 20
854.4980300416862
 30
0.0
 40
1.127800076479913
 41
2.194454365680795
 71
     7
 72
     1
  1
\fArial;di
1001
ACAD
1000
MTEXTBEGIN
1070
    73
1070
     2
1070
    44
1040
0.9638554216867471
1000
MTEXTEND
1000
ACAD_MTEXT_DEFINED_HEIGHT_BEGIN
1070
    46
1040
1.141388029208587
1000
ACAD_MTEXT_DEFINED_HEIGHT_END
  0
MTEXT
  5
18B
330
1F
100
AcDbEntity
  8
STANDARD
100
AcDbMText
 10
-736.035829313913
 20
854.4980300416862
 30
0.0
 40
1.127800076479913
 41
2.194454365680795
 71
     7
 72
     1
  1
\fArial;di
1001
ACAD
1000
MTEXTBEGIN
1070
    73
1070
     2
1070
    44
1040
0.9638554216867471
1000
MTEXTEND
1000
ACAD_MTEXT_DEFINED_HEIGHT_BEGIN
1070
    46
1040
1.141388029208587
1000
ACAD_MTEXT_DEFINED_HEIGHT_END
  0
MTEXT
  5
18C
330
1F
100
AcDbEntity
  8
STANDARD
100
AcDbMText
 10
-739.535829313913
 20
854.4980300416862
 30
0.0
 40
1.127800076479913
 41
2.194454365680795
 71
     7
 72
     1
  1
\fArial;di
1001
ACAD
1000
MTEXTBEGIN
1070
    73
1070
     2
1070
    44
1040
0.9638554216867471
1000
MTEXTEND
1000
ACAD_MTEXT_DEFINED_HEIGHT_BEGIN
1070
    46
1040
1.141388029208587
1000
ACAD_MTEXT_DEFINED_HEIGHT_END
  0
MTEXT
  5
18D
330
1F
100
AcDbEntity
  8
STANDARD
100
AcDbMText
 10
-743.035829313913
 20
854.4980300416862
 30
0.0
 40
1.127800076479913
 41
2.194454365680795
 71
     7
 72
     1
  1
\fArial;di
1001
ACAD
1000
MTEXTBEGIN
1070
    73
1070
     2
1070
    44
1040
0.9638554216867471
1000
MTEXTEND
1000
ACAD_MTEXT_DEFINED_HEIGHT_BEGIN
1070
    46
1040
1.141388029208587
1000
ACAD_MTEXT_DEFINED_HEIGHT_END
  0
MTEXT
  5
18E
330
1F
100
AcDbEntity
  8
STANDARD
100
AcDbMText
 10
-746.535829313913
 20
854.4980300416862
 30
0.0
 40
1.127800076479913
 41
2.194454365680795
 71
     7
 72
     1
  1
\fArial;di
1001
ACAD
1000
MTEXTBEGIN
1070
    73
1070
     2
1070
    44
1040
0.9638554216867471
1000
MTEXTEND
1000
ACAD_MTEXT_DEFINED_HEIGHT_BEGIN
1070
    46
1040
1.141388029208587
1000
ACAD_MTEXT_DEFINED_HEIGHT_END
  0
MTEXT
  5
18F
330
1F
100
AcDbEntity
  8
STANDARD
100
AcDbMText
 10
-757.0990689710196
 20
854.5048240180505
 30
0.0
 40
1.127800076479913
 41
2.758354403920753
 71
     7
 72
     1
  1
\fArial;do
1001
ACAD
1000
MTEXTBEGIN
1070
    73
1070
     2
1070
    44
1040
0.9638554216867471
1000
MTEXTEND
1000
ACAD_MTEXT_DEFINED_HEIGHT_BEGIN
1070
    46
1040
1.141388029208587
1000
ACAD_MTEXT_DEFINED_HEIGHT_END
  0
MTEXT
  5
190
330
1F
100
AcDbEntity
  8
STANDARD
100
AcDbMText
 10
-760.5990689710196
 20
854.5048240180505
 30
0.0
 40
1.127800076479913
 41
2.758354403920753
 71
     7
 72
     1
  1
\fArial;do
1001
ACAD
1000
MTEXTBEGIN
1070
    73
1070
     2
1070
    44
1040
0.9638554216867471
1000
MTEXTEND
1000
ACAD_MTEXT_DEFINED_HEIGHT_BEGIN
1070
    46
1040
1.141388029208587
1000
ACAD_MTEXT_DEFINED_HEIGHT_END
  0
MTEXT
  5
191
330
1F
100
AcDbEntity
  8
STANDARD
100
AcDbMText
 10
-764.0990689710196
 20
854.5048240180505
 30
0.0
 40
1.127800076479913
 41
2.758354403920753
 71
     7
 72
     1
  1
\fArial;do
1001
ACAD
1000
MTEXTBEGIN
1070
    73
1070
     2
1070
    44
1040
0.9638554216867471
1000
MTEXTEND
1000
ACAD_MTEXT_DEFINED_HEIGHT_BEGIN
1070
    46
1040
1.141388029208587
1000
ACAD_MTEXT_DEFINED_HEIGHT_END
  0
MTEXT
  5
192
330
1F
100
AcDbEntity
  8
STANDARD
100
AcDbMText
 10
-767.5990689710196
 20
854.5048240180505
 30
0.0
 40
1.127800076479913
 41
2.758354403920753
 71
     7
 72
     1
  1
\fArial;do
1001
ACAD
1000
MTEXTBEGIN
1070
    73
1070
     2
1070
    44
1040
0.9638554216867471
1000
MTEXTEND
1000
ACAD_MTEXT_DEFINED_HEIGHT_BEGIN
1070
    46
1040
1.141388029208587
1000
ACAD_MTEXT_DEFINED_HEIGHT_END
  0
MTEXT
  5
193
330
1F
100
AcDbEntity
  8
STANDARD
100
AcDbMText
 10
-771.0990689710196
 20
854.5048240180505
 30
0.0
 40
1.127800076479913
 41
2.758354403920753
 71
     7
 72
     1
  1
\fArial;do
1001
ACAD
1000
MTEXTBEGIN
1070
    73
1070
     2
1070
    44
1040
0.9638554216867471
1000
MTEXTEND
1000
ACAD_MTEXT_DEFINED_HEIGHT_BEGIN
1070
    46
1040
1.141388029208587
1000
ACAD_MTEXT_DEFINED_HEIGHT_END
  0
MTEXT
  5
194
330
1F
100
AcDbEntity
  8
STANDARD
100
AcDbMText
 10
-774.5990689710196
 20
854.5048240180505
 30
0.0
 40
1.127800076479913
 41
2.758354403920753
 71
     7
 72
     1
  1
\fArial;do
1001
ACAD
1000
MTEXTBEGIN
1070
    73
1070
     2
1070
    44
1040
0.9638554216867471
1000
MTEXTEND
1000
ACAD_MTEXT_DEFINED_HEIGHT_BEGIN
1070
    46
1040
1.141388029208587
1000
ACAD_MTEXT_DEFINED_HEIGHT_END
  0
MTEXT
  5
195
330
1F
100
AcDbEntity
  8
STANDARD
100
AcDbMText
 10
-774.5990689710196
 20
850.046899932367
 30
0.0
 40
1.127800076479913
 41
2.758354403920753
 71
     7
 72
     1
  1
\fArial;do
1001
ACAD
1000
MTEXTBEGIN
1070
    73
1070
     2
1070
    44
1040
0.9638554216867471
1000
MTEXTEND
1000
ACAD_MTEXT_DEFINED_HEIGHT_BEGIN
1070
    46
1040
1.141388029208587
1000
ACAD_MTEXT_DEFINED_HEIGHT_END
  0
MTEXT
  5
196
330
1F
100
AcDbEntity
  8
STANDARD
100
AcDbMText
 10
-771.0990689710196
 20
850.046899932367
 30
0.0
 40
1.127800076479913
 41
2.758354403920753
 71
     7
 72
     1
  1
\fArial;do
1001
ACAD
1000
MTEXTBEGIN
1070
    73
1070
     2
1070
    44
1040
0.9638554216867471
1000
MTEXTEND
1000
ACAD_MTEXT_DEFINED_HEIGHT_BEGIN
1070
    46
1040
1.141388029208587
1000
ACAD_MTEXT_DEFINED_HEIGHT_END
  0
MTEXT
  5
197
330
1F
100
AcDbEntity
  8
STANDARD
100
AcDbMText
 10
-767.5990689710196
 20
850.046899932367
 30
0.0
 40
1.127800076479913
 41
2.758354403920753
 71
     7
 72
     1
  1
\fArial;do
1001
ACAD
1000
MTEXTBEGIN
1070
    73
1070
     2
1070
    44
1040
0.9638554216867471
1000
MTEXTEND
1000
ACAD_MTEXT_DEFINED_HEIGHT_BEGIN
1070
    46
1040
1.141388029208587
1000
ACAD_MTEXT_DEFINED_HEIGHT_END
  0
MTEXT
  5
198
330
1F
100
AcDbEntity
  8
STANDARD
100
AcDbMText
 10
-764.0990689710196
 20
850.046899932367
 30
0.0
 40
1.127800076479913
 41
2.758354403920753
 71
     7
 72
     1
  1
\fArial;do
1001
ACAD
1000
MTEXTBEGIN
1070
    73
1070
     2
1070
    44
1040
0.9638554216867471
1000
MTEXTEND
1000
ACAD_MTEXT_DEFINED_HEIGHT_BEGIN
1070
    46
1040
1.141388029208587
1000
ACAD_MTEXT_DEFINED_HEIGHT_END
  0
MTEXT
  5
199
330
1F
100
AcDbEntity
  8
STANDARD
100
AcDbMText
 10
-760.5990689710196
 20
850.046899932367
 30
0.0
 40
1.127800076479913
 41
2.758354403920753
 71
     7
 72
     1
  1
\fArial;do
1001
ACAD
1000
MTEXTBEGIN
1070
    73
1070
     2
1070
    44
1040
0.9638554216867471
1000
MTEXTEND
1000
ACAD_MTEXT_DEFINED_HEIGHT_BEGIN
1070
    46
1040
1.141388029208587
1000
ACAD_MTEXT_DEFINED_HEIGHT_END
  0
MTEXT
  5
19A
330
1F
100
AcDbEntity
  8
STANDARD
100
AcDbMText
 10
-757.0990689710196
 20
850.046899932367
 30
0.0
 40
1.127800076479913
 41
2.758354403920753
 71
     7
 72
     1
  1
\fArial;do
1001
ACAD
1000
MTEXTBEGIN
1070
    73
1070
     2
1070
    44
1040
0.9638554216867471
1000
MTEXTEND
1000
ACAD_MTEXT_DEFINED_HEIGHT_BEGIN
1070
    46
1040
1.141388029208587
1000
ACAD_MTEXT_DEFINED_HEIGHT_END
  0
MTEXT
  5
19B
330
1F
100
AcDbEntity
  8
STANDARD
100
AcDbMText
 10
-746.535829313913
 20
850.0401059560027
 30
0.0
 40
1.127800076479913
 41
2.194454365680795
 71
     7
 72
     1
  1
\fArial;di
1001
ACAD
1000
MTEXTBEGIN
1070
    73
1070
     2
1070
    44
1040
0.9638554216867471
1000
MTEXTEND
1000
ACAD_MTEXT_DEFINED_HEIGHT_BEGIN
1070
    46
1040
1.141388029208587
1000
ACAD_MTEXT_DEFINED_HEIGHT_END
  0
MTEXT
  5
19C
330
1F
100
AcDbEntity
  8
STANDARD
100
AcDbMText
 10
-743.035829313913
 20
850.0401059560027
 30
0.0
 40
1.127800076479913
 41
2.194454365680795
 71
     7
 72
     1
  1
\fArial;di
1001
ACAD
1000
MTEXTBEGIN
1070
    73
1070
     2
1070
    44
1040
0.9638554216867471
1000
MTEXTEND
1000
ACAD_MTEXT_DEFINED_HEIGHT_BEGIN
1070
    46
1040
1.141388029208587
1000
ACAD_MTEXT_DEFINED_HEIGHT_END
  0
MTEXT
  5
19D
330
1F
100
AcDbEntity
  8
STANDARD
100
AcDbMText
 10
-739.535829313913
 20
850.0401059560027
 30
0.0
 40
1.127800076479913
 41
2.194454365680795
 71
     7
 72
     1
  1
\fArial;di
1001
ACAD
1000
MTEXTBEGIN
1070
    73
1070
     2
1070
    44
1040
0.9638554216867471
1000
MTEXTEND
1000
ACAD_MTEXT_DEFINED_HEIGHT_BEGIN
1070
    46
1040
1.141388029208587
1000
ACAD_MTEXT_DEFINED_HEIGHT_END
  0
MTEXT
  5
19E
330
1F
100
AcDbEntity
  8
STANDARD
100
AcDbMText
 10
-736.035829313913
 20
850.0401059560027
 30
0.0
 40
1.127800076479913
 41
2.194454365680795
 71
     7
 72
     1
  1
\fArial;di
1001
ACAD
1000
MTEXTBEGIN
1070
    73
1070
     2
1070
    44
1040
0.9638554216867471
1000
MTEXTEND
1000
ACAD_MTEXT_DEFINED_HEIGHT_BEGIN
1070
    46
1040
1.141388029208587
1000
ACAD_MTEXT_DEFINED_HEIGHT_END
  0
MTEXT
  5
19F
330
1F
100
AcDbEntity
  8
STANDARD
100
AcDbMText
 10
-732.535829313913
 20
850.0401059560027
 30
0.0
 40
1.127800076479913
 41
2.194454365680795
 71
     7
 72
     1
  1
\fArial;di
1001
ACAD
1000
MTEXTBEGIN
1070
    73
1070
     2
1070
    44
1040
0.9638554216867471
1000
MTEXTEND
1000
ACAD_MTEXT_DEFINED_HEIGHT_BEGIN
1070
    46
1040
1.141388029208587
1000
ACAD_MTEXT_DEFINED_HEIGHT_END
  0
MTEXT
  5
1A0
330
1F
100
AcDbEntity
  8
STANDARD
100
AcDbMText
 10
-729.035829313913
 20
850.0401059560027
 30
0.0
 40
1.127800076479913
 41
2.194454365680795
 71
     7
 72
     1
  1
\fArial;di
1001
ACAD
1000
MTEXTBEGIN
1070
    73
1070
     2
1070
    44
1040
0.9638554216867471
1000
MTEXTEND
1000
ACAD_MTEXT_DEFINED_HEIGHT_BEGIN
1070
    46
1040
1.141388029208587
1000
ACAD_MTEXT_DEFINED_HEIGHT_END
  0
MTEXT
  5
1A1
330
1F
100
AcDbEntity
  8
STANDARD
100
AcDbMText
 10
-725.535829313913
 20
850.0401059560027
 30
0.0
 40
1.127800076479913
 41
2.194454365680795
 71
     7
 72
     1
  1
\fArial;di
1001
ACAD
1000
MTEXTBEGIN
1070
    73
1070
     2
1070
    44
1040
0.9638554216867471
1000
MTEXTEND
1000
ACAD_MTEXT_DEFINED_HEIGHT_BEGIN
1070
    46
1040
1.141388029208587
1000
ACAD_MTEXT_DEFINED_HEIGHT_END
  0
MTEXT
  5
1A2
330
1F
100
AcDbEntity
  8
STANDARD
100
AcDbMText
 10
-722.035829313913
 20
850.0401059560027
 30
0.0
 40
1.127800076479913
 41
2.194454365680795
 71
     7
 72
     1
  1
\fArial;di
1001
ACAD
1000
MTEXTBEGIN
1070
    73
1070
     2
1070
    44
1040
0.9638554216867471
1000
MTEXTEND
1000
ACAD_MTEXT_DEFINED_HEIGHT_BEGIN
1070
    46
1040
1.141388029208587
1000
ACAD_MTEXT_DEFINED_HEIGHT_END
  0
MTEXT
  5
1A3
330
1F
100
AcDbEntity
  8
STANDARD
100
AcDbMText
 10
-718.535829313913
 20
850.0401059560027
 30
0.0
 40
1.127800076479913
 41
2.194454365680795
 71
     7
 72
     1
  1
\fArial;di
1001
ACAD
1000
MTEXTBEGIN
1070
    73
1070
     2
1070
    44
1040
0.9638554216867471
1000
MTEXTEND
1000
ACAD_MTEXT_DEFINED_HEIGHT_BEGIN
1070
    46
1040
1.141388029208587
1000
ACAD_MTEXT_DEFINED_HEIGHT_END
  0
MTEXT
  5
1A4
330
1F
100
AcDbEntity
  8
STANDARD
100
AcDbMText
 10
-715.035829313913
 20
850.0401059560027
 30
0.0
 40
1.127800076479913
 41
2.194454365680795
 71
     7
 72
     1
  1
\fArial;di
1001
ACAD
1000
MTEXTBEGIN
1070
    73
1070
     2
1070
    44
1040
0.9638554216867471
1000
MTEXTEND
1000
ACAD_MTEXT_DEFINED_HEIGHT_BEGIN
1070
    46
1040
1.141388029208587
1000
ACAD_MTEXT_DEFINED_HEIGHT_END
  0
MTEXT
  5
1A5
330
1F
100
AcDbEntity
  8
STANDARD
100
AcDbMText
 10
-711.535829313913
 20
850.0401059560027
 30
0.0
 40
1.127800076479913
 41
2.194454365680795
 71
     7
 72
     1
  1
\fArial;di
1001
ACAD
1000
MTEXTBEGIN
1070
    73
1070
     2
1070
    44
1040
0.9638554216867471
1000
MTEXTEND
1000
ACAD_MTEXT_DEFINED_HEIGHT_BEGIN
1070
    46
1040
1.141388029208587
1000
ACAD_MTEXT_DEFINED_HEIGHT_END
  0
MTEXT
  5
1A6
330
1F
100
AcDbEntity
  8
STANDARD
100
AcDbMText
 10
-708.035829313913
 20
850.0401059560027
 30
0.0
 40
1.127800076479913
 41
2.194454365680795
 71
     7
 72
     1
  1
\fArial;di
1001
ACAD
1000
MTEXTBEGIN
1070
    73
1070
     2
1070
    44
1040
0.9638554216867471
1000
MTEXTEND
1000
ACAD_MTEXT_DEFINED_HEIGHT_BEGIN
1070
    46
1040
1.141388029208587
1000
ACAD_MTEXT_DEFINED_HEIGHT_END
  0
MTEXT
  5
1A7
330
1F
100
AcDbEntity
  8
STANDARD
100
AcDbMText
 10
-753.5990689710196
 20
850.046899932367
 30
0.0
 40
1.127800076479913
 41
2.758354403920753
 71
     7
 72
     1
  1
\fArial;do
1001
ACAD
1000
MTEXTBEGIN
1070
    73
1070
     2
1070
    44
1040
0.9638554216867471
1000
MTEXTEND
1000
ACAD_MTEXT_DEFINED_HEIGHT_BEGIN
1070
    46
1040
1.141388029208587
1000
ACAD_MTEXT_DEFINED_HEIGHT_END
  0
MTEXT
  5
1A8
330
1F
100
AcDbEntity
  8
STANDARD
100
AcDbMText
 10
-750.035829313913
 20
850.0401059560027
 30
0.0
 40
1.127800076479913
 41
2.758354403920753
 71
     7
 72
     1
  1
\fArial;do
1001
ACAD
1000
MTEXTBEGIN
1070
    73
1070
     2
1070
    44
1040
0.9638554216867471
1000
MTEXTEND
1000
ACAD_MTEXT_DEFINED_HEIGHT_BEGIN
1070
    46
1040
1.141388029208587
1000
ACAD_MTEXT_DEFINED_HEIGHT_END
  0
MTEXT
  5
1A9
330
1F
100
AcDbEntity
  8
STANDARD
100
AcDbMText
 10
-694.035829313913
 20
850.0401059560027
 30
0.0
 40
1.127800076479913
 41
2.194454365680795
 71
     7
 72
     1
  1
\fArial;di
1001
ACAD
1000
MTEXTBEGIN
1070
    73
1070
     2
1070
    44
1040
0.9638554216867471
1000
MTEXTEND
1000
ACAD_MTEXT_DEFINED_HEIGHT_BEGIN
1070
    46
1040
1.141388029208587
1000
ACAD_MTEXT_DEFINED_HEIGHT_END
  0
MTEXT
  5
1AA
330
1F
100
AcDbEntity
  8
STANDARD
100
AcDbMText
 10
-697.535829313913
 20
850.0401059560027
 30
0.0
 40
1.127800076479913
 41
2.194454365680795
 71
     7
 72
     1
  1
\fArial;di
1001
ACAD
1000
MTEXTBEGIN
1070
    73
1070
     2
1070
    44
1040
0.9638554216867471
1000
MTEXTEND
1000
ACAD_MTEXT_DEFINED_HEIGHT_BEGIN
1070
    46
1040
1.141388029208587
1000
ACAD_MTEXT_DEFINED_HEIGHT_END
  0
MTEXT
  5
1AB
330
1F
100
AcDbEntity
  8
STANDARD
100
AcDbMText
 10
-701.035829313913
 20
850.0401059560027
 30
0.0
 40
1.127800076479913
 41
2.194454365680795
 71
     7
 72
     1
  1
\fArial;di
1001
ACAD
1000
MTEXTBEGIN
1070
    73
1070
     2
1070
    44
1040
0.9638554216867471
1000
MTEXTEND
1000
ACAD_MTEXT_DEFINED_HEIGHT_BEGIN
1070
    46
1040
1.141388029208587
1000
ACAD_MTEXT_DEFINED_HEIGHT_END
  0
MTEXT
  5
1AC
330
1F
100
AcDbEntity
  8
STANDARD
100
AcDbMText
 10
-704.535829313913
 20
850.0401059560027
 30
0.0
 40
1.127800076479913
 41
2.194454365680795
 71
     7
 72
     1
  1
\fArial;di
1001
ACAD
1000
MTEXTBEGIN
1070
    73
1070
     2
1070
    44
1040
0.9638554216867471
1000
MTEXTEND
1000
ACAD_MTEXT_DEFINED_HEIGHT_BEGIN
1070
    46
1040
1.141388029208587
1000
ACAD_MTEXT_DEFINED_HEIGHT_END
  0
MTEXT
  5
1AD
330
1F
100
AcDbEntity
  8
STANDARD
100
AcDbMText
 10
-757.9661348945205
 20
812.4857725049072
 30
0.0
 40
1.127800076479913
 41
4.45684849500496
 71
     7
 72
     1
  1
\fArial;GND
1001
ACAD
1000
MTEXTBEGIN
1070
    73
1070
     2
1070
    44
1040
0.9638554216867471
1000
MTEXTEND
1000
ACAD_MTEXT_DEFINED_HEIGHT_BEGIN
1070
    46
1040
1.168563934665934
1000
ACAD_MTEXT_DEFINED_HEIGHT_END
  0
MTEXT
  5
1AE
330
1F
100
AcDbEntity
  8
STANDARD
100
AcDbMText
 10
-775.4661348945205
 20
812.4857725049072
 30
0.0
 40
1.127800076479913
 41
3.892948456765002
 71
     7
 72
     1
  1
\fArial;+5V
1001
ACAD
1000
MTEXTBEGIN
1070
    73
1070
     2
1070
    44
1040
0.9638554216867471
1000
MTEXTEND
1000
ACAD_MTEXT_DEFINED_HEIGHT_BEGIN
1070
    46
1040
1.148182005572924
1000
ACAD_MTEXT_DEFINED_HEIGHT_END
  0
MTEXT
  5
1AF
330
1F
100
AcDbEntity
  8
STANDARD
100
AcDbMText
 10
-736.9661348945205
 20
812.4857725049072
 30
0.0
 40
1.127800076479913
 41
4.45684849500496
 71
     7
 72
     1
  1
\fArial;GND
1001
ACAD
1000
MTEXTBEGIN
1070
    73
1070
     2
1070
    44
1040
0.9638554216867471
1000
MTEXTEND
1000
ACAD_MTEXT_DEFINED_HEIGHT_BEGIN
1070
    46
1040
1.168563934665934
1000
ACAD_MTEXT_DEFINED_HEIGHT_END
  0
MTEXT
  5
1B0
330
1F
100
AcDbEntity
  8
STANDARD
100
AcDbMText
 10
-754.4661348945205
 20
812.4857725049072
 30
0.0
 40
1.127800076479913
 41
3.892948456765002
 71
     7
 72
     1
  1
\fArial;+5V
1001
ACAD
1000
MTEXTBEGIN
1070
    73
1070
     2
1070
    44
1040
0.9638554216867471
1000
MTEXTEND
1000
ACAD_MTEXT_DEFINED_HEIGHT_BEGIN
1070
    46
1040
1.148182005572924
1000
ACAD_MTEXT_DEFINED_HEIGHT_END
  0
MTEXT
  5
1B1
330
1F
100
AcDbEntity
  8
STANDARD
100
AcDbMText
 10
-715.9661348945205
 20
812.4857725049072
 30
0.0
 40
1.127800076479913
 41
4.45684849500496
 71
     7
 72
     1
  1
\fArial;GND
1001
ACAD
1000
MTEXTBEGIN
1070
    73
1070
     2
1070
    44
1040
0.9638554216867471
1000
MTEXTEND
1000
ACAD_MTEXT_DEFINED_HEIGHT_BEGIN
1070
    46
1040
1.168563934665934
1000
ACAD_MTEXT_DEFINED_HEIGHT_END
  0
MTEXT
  5
1B2
330
1F
100
AcDbEntity
  8
STANDARD
100
AcDbMText
 10
-733.4661348945205
 20
812.4857725049072
 30
0.0
 40
1.127800076479913
 41
3.892948456765002
 71
     7
 72
     1
  1
\fArial;+5V
1001
ACAD
1000
MTEXTBEGIN
1070
    73
1070
     2
1070
    44
1040
0.9638554216867471
1000
MTEXTEND
1000
ACAD_MTEXT_DEFINED_HEIGHT_BEGIN
1070
    46
1040
1.148182005572924
1000
ACAD_MTEXT_DEFINED_HEIGHT_END
  0
MTEXT
  5
1B3
330
1F
100
AcDbEntity
  8
STANDARD
100
AcDbMText
 10
-712.4661348945205
 20
812.4857725049072
 30
0.0
 40
1.127800076479913
 41
3.892948456765002
 71
     7
 72
     1
  1
\fArial;+5V
1001
ACAD
1000
MTEXTBEGIN
1070
    73
1070
     2
1070
    44
1040
0.9638554216867471
1000
MTEXTEND
1000
ACAD_MTEXT_DEFINED_HEIGHT_BEGIN
1070
    46
1040
1.148182005572924
1000
ACAD_MTEXT_DEFINED_HEIGHT_END
  0
MTEXT
  5
1B4
330
1F
100
AcDbEntity
  8
STANDARD
100
AcDbMText
 10
-694.9661348945205
 20
812.4857725049072
 30
0.0
 40
1.127800076479913
 41
4.45684849500496
 71
     7
 72
     1
  1
\fArial;GND
1001
ACAD
1000
MTEXTBEGIN
1070
    73
1070
     2
1070
    44
1040
0.9638554216867471
1000
MTEXTEND
1000
ACAD_MTEXT_DEFINED_HEIGHT_BEGIN
1070
    46
1040
1.168563934665934
1000
ACAD_MTEXT_DEFINED_HEIGHT_END
  0
LINE
  5
1B5
330
1F
100
AcDbEntity
  8
STANDARD
100
AcDbLine
 10
-694.9661348945205
 20
814.2474800661806
 30
0.0
 11
-694.9661348945205
 21
811.2474800661806
 31
0.0
  0
LINE
  5
1B6
330
1F
100
AcDbEntity
  8
STANDARD
100
AcDbLine
 10
-698.4661348945205
 20
814.2474800661806
 30
0.0
 11
-698.4661348945205
 21
811.2474800661806
 31
0.0
  0
LINE
  5
1B7
330
1F
100
AcDbEntity
  8
STANDARD
100
AcDbLine
 10
-701.9661348945205
 20
814.2474800661806
 30
0.0
 11
-701.9661348945205
 21
811.2474800661806
 31
0.0
  0
LINE
  5
1B8
330
1F
100
AcDbEntity
  8
STANDARD
100
AcDbLine
 10
-705.4661348945205
 20
814.2474800661806
 30
0.0
 11
-705.4661348945205
 21
811.2474800661806
 31
0.0
  0
LINE
  5
1B9
330
1F
100
AcDbEntity
  8
STANDARD
100
AcDbLine
 10
-708.9661348945205
 20
814.2474800661806
 30
0.0
 11
-708.9661348945205
 21
811.2474800661806
 31
0.0
  0
LINE
  5
1BA
330
1F
100
AcDbEntity
  8
STANDARD
100
AcDbLine
 10
-712.4661348945205
 20
814.2474800661806
 30
0.0
 11
-712.4661348945205
 21
811.2474800661806
 31
0.0
  0
POLYLINE
  5
1BB
330
1F
100
AcDbEntity
  8
STANDARD
100
AcDb2dPolyline
 66
     1
 10
0.0
 20
0.0
 30
0.0
 70
     1
  0
VERTEX
  5
1BC
330
1BB
100
AcDbEntity
  8
STANDARD
100
AcDbVertex
100
AcDb2dVertex
 10
-712.4661348945205
 20
811.2474800661806
 30
0.0
  0
VERTEX
  5
1BD
330
1BB
100
AcDbEntity
  8
STANDARD
100
AcDbVertex
100
AcDb2dVertex
 10
-691.4661348945205
 20
811.2474800661806
 30
0.0
  0
VERTEX
  5
1BE
330
1BB
100
AcDbEntity
  8
STANDARD
100
AcDbVertex
100
AcDb2dVertex
 10
-691.4661348945205
 20
814.2474800661806
 30
0.0
  0
VERTEX
  5
1BF
330
1BB
100
AcDbEntity
  8
STANDARD
100
AcDbVertex
100
AcDb2dVertex
 10
-712.4661348945205
 20
814.2474800661806
 30
0.0
  0
SEQEND
  5
1C0
330
1BB
100
AcDbEntity
  8
STANDARD
  0
POLYLINE
  5
1C1
330
1F
100
AcDbEntity
  8
STANDARD
100
AcDb2dPolyline
 66
     1
 10
0.0
 20
0.0
 30
0.0
 70
     1
  0
VERTEX
  5
1C2
330
1C1
100
AcDbEntity
  8
STANDARD
100
AcDbVertex
100
AcDb2dVertex
 10
-733.4661348945205
 20
811.2474800661806
 30
0.0
  0
VERTEX
  5
1C3
330
1C1
100
AcDbEntity
  8
STANDARD
100
AcDbVertex
100
AcDb2dVertex
 10
-712.4661348945205
 20
811.2474800661806
 30
0.0
  0
VERTEX
  5
1C4
330
1C1
100
AcDbEntity
  8
STANDARD
100
AcDbVertex
100
AcDb2dVertex
 10
-712.4661348945205
 20
814.2474800661806
 30
0.0
  0
VERTEX
  5
1C5
330
1C1
100
AcDbEntity
  8
STANDARD
100
AcDbVertex
100
AcDb2dVertex
 10
-733.4661348945205
 20
814.2474800661806
 30
0.0
  0
SEQEND
  5
1C6
330
1C1
100
AcDbEntity
  8
STANDARD
  0
LINE
  5
1C7
330
1F
100
AcDbEntity
  8
STANDARD
100
AcDbLine
 10
-733.4661348945205
 20
814.2474800661806
 30
0.0
 11
-733.4661348945205
 21
811.2474800661806
 31
0.0
  0
LINE
  5
1C8
330
1F
100
AcDbEntity
  8
STANDARD
100
AcDbLine
 10
-729.9661348945205
 20
814.2474800661806
 30
0.0
 11
-729.9661348945205
 21
811.2474800661806
 31
0.0
  0
LINE
  5
1C9
330
1F
100
AcDbEntity
  8
STANDARD
100
AcDbLine
 10
-726.4661348945205
 20
814.2474800661806
 30
0.0
 11
-726.4661348945205
 21
811.2474800661806
 31
0.0
  0
LINE
  5
1CA
330
1F
100
AcDbEntity
  8
STANDARD
100
AcDbLine
 10
-722.9661348945205
 20
814.2474800661806
 30
0.0
 11
-722.9661348945205
 21
811.2474800661806
 31
0.0
  0
LINE
  5
1CB
330
1F
100
AcDbEntity
  8
STANDARD
100
AcDbLine
 10
-719.4661348945205
 20
814.2474800661806
 30
0.0
 11
-719.4661348945205
 21
811.2474800661806
 31
0.0
  0
LINE
  5
1CC
330
1F
100
AcDbEntity
  8
STANDARD
100
AcDbLine
 10
-715.9661348945205
 20
814.2474800661806
 30
0.0
 11
-715.9661348945205
 21
811.2474800661806
 31
0.0
  0
POLYLINE
  5
1CD
330
1F
100
AcDbEntity
  8
STANDARD
100
AcDb2dPolyline
 66
     1
 10
0.0
 20
0.0
 30
0.0
 70
     1
  0
VERTEX
  5
1CE
330
1CD
100
AcDbEntity
  8
STANDARD
100
AcDbVertex
100
AcDb2dVertex
 10
-754.4661348945205
 20
811.2474800661806
 30
0.0
  0
VERTEX
  5
1CF
330
1CD
100
AcDbEntity
  8
STANDARD
100
AcDbVertex
100
AcDb2dVertex
 10
-733.4661348945205
 20
811.2474800661806
 30
0.0
  0
VERTEX
  5
1D0
330
1CD
100
AcDbEntity
  8
STANDARD
100
AcDbVertex
100
AcDb2dVertex
 10
-733.4661348945205
 20
814.2474800661806
 30
0.0
  0
VERTEX
  5
1D1
330
1CD
100
AcDbEntity
  8
STANDARD
100
AcDbVertex
100
AcDb2dVertex
 10
-754.4661348945205
 20
814.2474800661806
 30
0.0
  0
SEQEND
  5
1D2
330
1CD
100
AcDbEntity
  8
STANDARD
  0
LINE
  5
1D3
330
1F
100
AcDbEntity
  8
STANDARD
100
AcDbLine
 10
-754.4661348945205
 20
814.2474800661806
 30
0.0
 11
-754.4661348945205
 21
811.2474800661806
 31
0.0
  0
LINE
  5
1D4
330
1F
100
AcDbEntity
  8
STANDARD
100
AcDbLine
 10
-750.9661348945205
 20
814.2474800661806
 30
0.0
 11
-750.9661348945205
 21
811.2474800661806
 31
0.0
  0
LINE
  5
1D5
330
1F
100
AcDbEntity
  8
STANDARD
100
AcDbLine
 10
-747.4661348945205
 20
814.2474800661806
 30
0.0
 11
-747.4661348945205
 21
811.2474800661806
 31
0.0
  0
LINE
  5
1D6
330
1F
100
AcDbEntity
  8
STANDARD
100
AcDbLine
 10
-743.9661348945205
 20
814.2474800661806
 30
0.0
 11
-743.9661348945205
 21
811.2474800661806
 31
0.0
  0
LINE
  5
1D7
330
1F
100
AcDbEntity
  8
STANDARD
100
AcDbLine
 10
-740.4661348945205
 20
814.2474800661806
 30
0.0
 11
-740.4661348945205
 21
811.2474800661806
 31
0.0
  0
LINE
  5
1D8
330
1F
100
AcDbEntity
  8
STANDARD
100
AcDbLine
 10
-736.9661348945205
 20
814.2474800661806
 30
0.0
 11
-736.9661348945205
 21
811.2474800661806
 31
0.0
  0
POLYLINE
  5
1D9
330
1F
100
AcDbEntity
  8
STANDARD
100
AcDb2dPolyline
 66
     1
 10
0.0
 20
0.0
 30
0.0
 70
     1
  0
VERTEX
  5
1DA
330
1D9
100
AcDbEntity
  8
STANDARD
100
AcDbVertex
100
AcDb2dVertex
 10
-775.4661348945205
 20
811.2474800661806
 30
0.0
  0
VERTEX
  5
1DB
330
1D9
100
AcDbEntity
  8
STANDARD
100
AcDbVertex
100
AcDb2dVertex
 10
-754.4661348945205
 20
811.2474800661806
 30
0.0
  0
VERTEX
  5
1DC
330
1D9
100
AcDbEntity
  8
STANDARD
100
AcDbVertex
100
AcDb2dVertex
 10
-754.4661348945205
 20
814.2474800661806
 30
0.0
  0
VERTEX
  5
1DD
330
1D9
100
AcDbEntity
  8
STANDARD
100
AcDbVertex
100
AcDb2dVertex
 10
-775.4661348945205
 20
814.2474800661806
 30
0.0
  0
SEQEND
  5
1DE
330
1D9
100
AcDbEntity
  8
STANDARD
  0
LINE
  5
1DF
330
1F
100
AcDbEntity
  8
STANDARD
100
AcDbLine
 10
-775.4661348945205
 20
814.2474800661806
 30
0.0
 11
-775.4661348945205
 21
811.2474800661806
 31
0.0
  0
LINE
  5
1E0
330
1F
100
AcDbEntity
  8
STANDARD
100
AcDbLine
 10
-771.9661348945205
 20
814.2474800661806
 30
0.0
 11
-771.9661348945205
 21
811.2474800661806
 31
0.0
  0
LINE
  5
1E1
330
1F
100
AcDbEntity
  8
STANDARD
100
AcDbLine
 10
-768.4661348945205
 20
814.2474800661806
 30
0.0
 11
-768.4661348945205
 21
811.2474800661806
 31
0.0
  0
LINE
  5
1E2
330
1F
100
AcDbEntity
  8
STANDARD
100
AcDbLine
 10
-764.9661348945205
 20
814.2474800661806
 30
0.0
 11
-764.9661348945205
 21
811.2474800661806
 31
0.0
  0
LINE
  5
1E3
330
1F
100
AcDbEntity
  8
STANDARD
100
AcDbLine
 10
-761.4661348945205
 20
814.2474800661806
 30
0.0
 11
-761.4661348945205
 21
811.2474800661806
 31
0.0
  0
LINE
  5
1E4
330
1F
100
AcDbEntity
  8
STANDARD
100
AcDbLine
 10
-757.9661348945205
 20
814.2474800661806
 30
0.0
 11
-757.9661348945205
 21
811.2474800661806
 31
0.0
  0
LINE
  5
1E6
330
1F
100
AcDbEntity
  8
AUFSPANNFLAECHE_ANLAGE
100
AcDbLine
 10
-754.4661348945205
 20
814.2474800661806
 30
0.0
 11
-754.4661348945205
 21
815.8671468763167
 31
0.0
  0
LINE
  5
1E7
330
1F
100
AcDbEntity
  8
AUFSPANNFLAECHE_ANLAGE
100
AcDbLine
 10
-712.4661348945205
 20
814.2474800661806
 30
0.0
 11
-712.4661348945205
 21
815.8671468763167
 31
0.0
  0
LINE
  5
1E8
330
1F
100
AcDbEntity
  8
AUFSPANNFLAECHE_ANLAGE
100
AcDbLine
 10
-733.4661348945205
 20
814.2474800661806
 30
0.0
 11
-733.4661348945205
 21
815.8671468763167
 31
0.0
  0
MTEXT
  5
1E9
330
1F
100
AcDbEntity
  8
STANDARD
100
AcDbMText
 10
-694.8715464159104
 20
822.2239074621336
 30
0.0
 40
1.127800076479913
 41
2.975761647579531
 71
     7
 72
     1
  1
\fArial;spi
1001
ACAD
1000
MTEXTBEGIN
1070
    73
1070
     2
1070
    44
1040
0.9638554216867471
1000
MTEXTEND
1000
ACAD_MTEXT_DEFINED_HEIGHT_BEGIN
1070
    46
1040
1.440322989239408
1000
ACAD_MTEXT_DEFINED_HEIGHT_END
  0
MTEXT
  5
1EA
330
1F
100
AcDbEntity
  8
STANDARD
100
AcDbMText
 10
-698.3715464159104
 20
822.2239074621336
 30
0.0
 40
1.127800076479913
 41
2.975761647579531
 71
     7
 72
     1
  1
\fArial;spi
1001
ACAD
1000
MTEXTBEGIN
1070
    73
1070
     2
1070
    44
1040
0.9638554216867471
1000
MTEXTEND
1000
ACAD_MTEXT_DEFINED_HEIGHT_BEGIN
1070
    46
1040
1.440322989239408
1000
ACAD_MTEXT_DEFINED_HEIGHT_END
  0
MTEXT
  5
1EB
330
1F
100
AcDbEntity
  8
STANDARD
100
AcDbMText
 10
-757.4954198213186
 20
822.2307014384979
 30
0.0
 40
1.127800076479913
 41
2.975761647579531
 71
     7
 72
     1
  1
\fArial;V+
1001
ACAD
1000
MTEXTBEGIN
1070
    73
1070
     2
1070
    44
1040
0.9638554216867471
1000
MTEXTEND
1000
ACAD_MTEXT_DEFINED_HEIGHT_BEGIN
1070
    46
1040
1.127800076479913
1000
ACAD_MTEXT_DEFINED_HEIGHT_END
  0
MTEXT
  5
1EC
330
1F
100
AcDbEntity
  8
STANDARD
100
AcDbMText
 10
-753.9954198213186
 20
822.2307014384979
 30
0.0
 40
1.127800076479913
 41
2.975761647579531
 71
     7
 72
     1
  1
\fArial;V+
1001
ACAD
1000
MTEXTBEGIN
1070
    73
1070
     2
1070
    44
1040
0.9638554216867471
1000
MTEXTEND
1000
ACAD_MTEXT_DEFINED_HEIGHT_BEGIN
1070
    46
1040
1.127800076479913
1000
ACAD_MTEXT_DEFINED_HEIGHT_END
  0
MTEXT
  5
1ED
330
1F
100
AcDbEntity
  8
STANDARD
100
AcDbMText
 10
-750.4954198213186
 20
822.2307014384979
 30
0.0
 40
1.127800076479913
 41
2.975761647579531
 71
     7
 72
     1
  1
\fArial;V+
1001
ACAD
1000
MTEXTBEGIN
1070
    73
1070
     2
1070
    44
1040
0.9638554216867471
1000
MTEXTEND
1000
ACAD_MTEXT_DEFINED_HEIGHT_BEGIN
1070
    46
1040
1.127800076479913
1000
ACAD_MTEXT_DEFINED_HEIGHT_END
  0
MTEXT
  5
1EE
330
1F
100
AcDbEntity
  8
STANDARD
100
AcDbMText
 10
-760.9954198213186
 20
822.2307014384979
 30
0.0
 40
1.127800076479913
 41
2.975761647579531
 71
     7
 72
     1
  1
\fArial;V+
1001
ACAD
1000
MTEXTBEGIN
1070
    73
1070
     2
1070
    44
1040
0.9638554216867471
1000
MTEXTEND
1000
ACAD_MTEXT_DEFINED_HEIGHT_BEGIN
1070
    46
1040
1.127800076479913
1000
ACAD_MTEXT_DEFINED_HEIGHT_END
  0
MTEXT
  5
1EF
330
1F
100
AcDbEntity
  8
STANDARD
100
AcDbMText
 10
-760.9954198213186
 20
821.0825194329251
 30
0.0
 40
1.127800076479913
 41
3.240726725788667
 71
     7
 72
     1
  1
\fArial;out
1001
ACAD
1000
MTEXTBEGIN
1070
    73
1070
     2
1070
    44
1040
0.9638554216867471
1000
MTEXTEND
1000
ACAD_MTEXT_DEFINED_HEIGHT_BEGIN
1070
    46
1040
1.121006100115577
1000
ACAD_MTEXT_DEFINED_HEIGHT_END
  0
MTEXT
  5
1F0
330
1F
100
AcDbEntity
  8
STANDARD
100
AcDbMText
 10
-757.4954198213186
 20
821.0825194329251
 30
0.0
 40
1.127800076479913
 41
3.240726725788667
 71
     7
 72
     1
  1
\fArial;out
1001
ACAD
1000
MTEXTBEGIN
1070
    73
1070
     2
1070
    44
1040
0.9638554216867471
1000
MTEXTEND
1000
ACAD_MTEXT_DEFINED_HEIGHT_BEGIN
1070
    46
1040
1.121006100115577
1000
ACAD_MTEXT_DEFINED_HEIGHT_END
  0
MTEXT
  5
1F1
330
1F
100
AcDbEntity
  8
STANDARD
100
AcDbMText
 10
-753.9954198213186
 20
821.0825194329251
 30
0.0
 40
1.127800076479913
 41
3.240726725788667
 71
     7
 72
     1
  1
\fArial;out
1001
ACAD
1000
MTEXTBEGIN
1070
    73
1070
     2
1070
    44
1040
0.9638554216867471
1000
MTEXTEND
1000
ACAD_MTEXT_DEFINED_HEIGHT_BEGIN
1070
    46
1040
1.121006100115577
1000
ACAD_MTEXT_DEFINED_HEIGHT_END
  0
MTEXT
  5
1F2
330
1F
100
AcDbEntity
  8
STANDARD
100
AcDbMText
 10
-750.4954198213186
 20
821.0825194329251
 30
0.0
 40
1.127800076479913
 41
3.240726725788667
 71
     7
 72
     1
  1
\fArial;out
1001
ACAD
1000
MTEXTBEGIN
1070
    73
1070
     2
1070
    44
1040
0.9638554216867471
1000
MTEXTEND
1000
ACAD_MTEXT_DEFINED_HEIGHT_BEGIN
1070
    46
1040
1.121006100115577
1000
ACAD_MTEXT_DEFINED_HEIGHT_END
  0
MTEXT
  5
1F3
330
1F
100
AcDbEntity
  8
STANDARD
100
AcDbMText
 10
-765.0293745516271
 20
821.0825194329251
 30
0.0
 40
1.127800076479913
 41
2.133308578401764
 71
     7
 72
     1
  1
\fArial;in
1001
ACAD
1000
MTEXTBEGIN
1070
    73
1070
     2
1070
    44
1040
0.9638554216867471
1000
MTEXTEND
1000
ACAD_MTEXT_DEFINED_HEIGHT_BEGIN
1070
    46
1040
1.127800076479913
1000
ACAD_MTEXT_DEFINED_HEIGHT_END
  0
MTEXT
  5
1F4
330
1F
100
AcDbEntity
  8
STANDARD
100
AcDbMText
 10
-765.0293745516271
 20
822.2307014384979
 30
0.0
 40
1.127800076479913
 41
4.762577431400117
 71
     7
 72
     1
  1
\fArial;+24V
1001
ACAD
1000
MTEXTBEGIN
1070
    73
1070
     2
1070
    44
1040
0.9638554216867471
1000
MTEXTEND
1000
ACAD_MTEXT_DEFINED_HEIGHT_BEGIN
1070
    46
1040
1.13459405284425
1000
ACAD_MTEXT_DEFINED_HEIGHT_END
  0
MTEXT
  5
1F5
330
1F
100
AcDbEntity
  8
STANDARD
100
AcDbMText
 10
-775.5293745516271
 20
822.2307014384979
 30
0.0
 40
1.127800076479913
 41
4.45684849500496
 71
     7
 72
     1
  1
\fArial;GND
1001
ACAD
1000
MTEXTBEGIN
1070
    73
1070
     2
1070
    44
1040
0.9638554216867471
1000
MTEXTEND
1000
ACAD_MTEXT_DEFINED_HEIGHT_BEGIN
1070
    46
1040
1.168563934665934
1000
ACAD_MTEXT_DEFINED_HEIGHT_END
  0
MTEXT
  5
1F6
330
1F
100
AcDbEntity
  8
STANDARD
100
AcDbMText
 10
-701.9661348945205
 20
822.2239074621336
 30
0.0
 40
1.127800076479913
 41
2.975761647579531
 71
     7
 72
     1
  1
\fArial;spi
1001
ACAD
1000
MTEXTBEGIN
1070
    73
1070
     2
1070
    44
1040
0.9638554216867471
1000
MTEXTEND
1000
ACAD_MTEXT_DEFINED_HEIGHT_BEGIN
1070
    46
1040
1.440322989239408
1000
ACAD_MTEXT_DEFINED_HEIGHT_END
  0
MTEXT
  5
1F7
330
1F
100
AcDbEntity
  8
STANDARD
100
AcDbMText
 10
-712.4661348945205
 20
822.2239074621336
 30
0.0
 40
1.127800076479913
 41
2.975761647579531
 71
     7
 72
     1
  1
\fArial;spi
1001
ACAD
1000
MTEXTBEGIN
1070
    73
1070
     2
1070
    44
1040
0.9638554216867471
1000
MTEXTEND
1000
ACAD_MTEXT_DEFINED_HEIGHT_BEGIN
1070
    46
1040
1.440322989239408
1000
ACAD_MTEXT_DEFINED_HEIGHT_END
  0
LINE
  5
1F8
330
1F
100
AcDbEntity
  8
STANDARD
100
AcDbLine
 10
-750.9661348945206
 20
823.985615023407
 30
0.0
 11
-750.9661348945206
 21
820.985615023407
 31
0.0
  0
LINE
  5
1F9
330
1F
100
AcDbEntity
  8
STANDARD
100
AcDbLine
 10
-754.4661348945206
 20
823.985615023407
 30
0.0
 11
-754.4661348945206
 21
820.985615023407
 31
0.0
  0
LINE
  5
1FA
330
1F
100
AcDbEntity
  8
STANDARD
100
AcDbLine
 10
-757.9661348945206
 20
823.985615023407
 30
0.0
 11
-757.9661348945206
 21
820.985615023407
 31
0.0
  0
LINE
  5
1FB
330
1F
100
AcDbEntity
  8
STANDARD
100
AcDbLine
 10
-761.4661348945206
 20
823.985615023407
 30
0.0
 11
-761.4661348945206
 21
820.985615023407
 31
0.0
  0
LINE
  5
1FC
330
1F
100
AcDbEntity
  8
STANDARD
100
AcDbLine
 10
-764.9661348945206
 20
823.985615023407
 30
0.0
 11
-764.9661348945206
 21
820.985615023407
 31
0.0
  0
LINE
  5
1FD
330
1F
100
AcDbEntity
  8
STANDARD
100
AcDbLine
 10
-768.4661348945206
 20
823.985615023407
 30
0.0
 11
-768.4661348945206
 21
820.985615023407
 31
0.0
  0
LINE
  5
1FE
330
1F
100
AcDbEntity
  8
STANDARD
100
AcDbLine
 10
-771.9661348945206
 20
823.985615023407
 30
0.0
 11
-771.9661348945206
 21
820.985615023407
 31
0.0
  0
POLYLINE
  5
1FF
330
1F
100
AcDbEntity
  8
STANDARD
100
AcDb2dPolyline
 66
     1
 10
0.0
 20
0.0
 30
0.0
 70
     1
  0
VERTEX
  5
200
330
1FF
100
AcDbEntity
  8
STANDARD
100
AcDbVertex
100
AcDb2dVertex
 10
-775.4661348945206
 20
820.985615023407
 30
0.0
  0
VERTEX
  5
201
330
1FF
100
AcDbEntity
  8
STANDARD
100
AcDbVertex
100
AcDb2dVertex
 10
-747.4661348945206
 20
820.985615023407
 30
0.0
  0
VERTEX
  5
202
330
1FF
100
AcDbEntity
  8
STANDARD
100
AcDbVertex
100
AcDb2dVertex
 10
-747.4661348945206
 20
823.985615023407
 30
0.0
  0
VERTEX
  5
203
330
1FF
100
AcDbEntity
  8
STANDARD
100
AcDbVertex
100
AcDb2dVertex
 10
-775.4661348945206
 20
823.985615023407
 30
0.0
  0
SEQEND
  5
204
330
1FF
100
AcDbEntity
  8
STANDARD
  0
POLYLINE
  5
205
330
1F
100
AcDbEntity
  8
STANDARD
100
AcDb2dPolyline
 66
     1
 10
0.0
 20
0.0
 30
0.0
 70
     1
  0
VERTEX
  5
206
330
205
100
AcDbEntity
  8
STANDARD
100
AcDbVertex
100
AcDb2dVertex
 10
-719.4661348945205
 20
820.985615023407
 30
0.0
  0
VERTEX
  5
207
330
205
100
AcDbEntity
  8
STANDARD
100
AcDbVertex
100
AcDb2dVertex
 10
-691.4661348945205
 20
820.985615023407
 30
0.0
  0
VERTEX
  5
208
330
205
100
AcDbEntity
  8
STANDARD
100
AcDbVertex
100
AcDb2dVertex
 10
-691.4661348945205
 20
823.985615023407
 30
0.0
  0
VERTEX
  5
209
330
205
100
AcDbEntity
  8
STANDARD
100
AcDbVertex
100
AcDb2dVertex
 10
-719.4661348945205
 20
823.985615023407
 30
0.0
  0
SEQEND
  5
20A
330
205
100
AcDbEntity
  8
STANDARD
  0
LINE
  5
20B
330
1F
100
AcDbEntity
  8
STANDARD
100
AcDbLine
 10
-715.9661348945205
 20
823.985615023407
 30
0.0
 11
-715.9661348945205
 21
820.985615023407
 31
0.0
  0
LINE
  5
20C
330
1F
100
AcDbEntity
  8
STANDARD
100
AcDbLine
 10
-712.4661348945205
 20
823.985615023407
 30
0.0
 11
-712.4661348945205
 21
820.985615023407
 31
0.0
  0
LINE
  5
20D
330
1F
100
AcDbEntity
  8
STANDARD
100
AcDbLine
 10
-708.9661348945205
 20
823.985615023407
 30
0.0
 11
-708.9661348945205
 21
820.985615023407
 31
0.0
  0
LINE
  5
20E
330
1F
100
AcDbEntity
  8
STANDARD
100
AcDbLine
 10
-705.4661348945205
 20
823.985615023407
 30
0.0
 11
-705.4661348945205
 21
820.985615023407
 31
0.0
  0
LINE
  5
20F
330
1F
100
AcDbEntity
  8
STANDARD
100
AcDbLine
 10
-701.9661348945205
 20
823.985615023407
 30
0.0
 11
-701.9661348945205
 21
820.985615023407
 31
0.0
  0
LINE
  5
210
330
1F
100
AcDbEntity
  8
STANDARD
100
AcDbLine
 10
-698.4661348945205
 20
823.985615023407
 30
0.0
 11
-698.4661348945205
 21
820.985615023407
 31
0.0
  0
LINE
  5
211
330
1F
100
AcDbEntity
  8
STANDARD
100
AcDbLine
 10
-694.9661348945205
 20
823.985615023407
 30
0.0
 11
-694.9661348945205
 21
820.985615023407
 31
0.0
  0
POLYLINE
  5
212
330
1F
100
AcDbEntity
  8
STANDARD
100
AcDb2dPolyline
 66
     1
 10
0.0
 20
0.0
 30
0.0
 70
     1
  0
VERTEX
  5
213
330
212
100
AcDbEntity
  8
STANDARD
100
AcDbVertex
100
AcDb2dVertex
 10
-775.4661348945206
 20
829.8148993079892
 30
0.0
  0
VERTEX
  5
214
330
212
100
AcDbEntity
  8
STANDARD
100
AcDbVertex
100
AcDb2dVertex
 10
-747.4661348945206
 20
829.8148993079892
 30
0.0
  0
VERTEX
  5
215
330
212
100
AcDbEntity
  8
STANDARD
100
AcDbVertex
100
AcDb2dVertex
 10
-747.4661348945206
 20
832.8148993079892
 30
0.0
  0
VERTEX
  5
216
330
212
100
AcDbEntity
  8
STANDARD
100
AcDbVertex
100
AcDb2dVertex
 10
-775.4661348945206
 20
832.8148993079892
 30
0.0
  0
SEQEND
  5
217
330
212
100
AcDbEntity
  8
STANDARD
  0
LINE
  5
218
330
1F
100
AcDbEntity
  8
STANDARD
100
AcDbLine
 10
-771.9661348945206
 20
832.8148993079892
 30
0.0
 11
-771.9661348945206
 21
829.8148993079892
 31
0.0
  0
LINE
  5
219
330
1F
100
AcDbEntity
  8
STANDARD
100
AcDbLine
 10
-768.4661348945206
 20
832.8148993079892
 30
0.0
 11
-768.4661348945206
 21
829.8148993079892
 31
0.0
  0
LINE
  5
21A
330
1F
100
AcDbEntity
  8
STANDARD
100
AcDbLine
 10
-764.9661348945206
 20
832.8148993079892
 30
0.0
 11
-764.9661348945206
 21
829.8148993079892
 31
0.0
  0
LINE
  5
21B
330
1F
100
AcDbEntity
  8
STANDARD
100
AcDbLine
 10
-761.4661348945206
 20
832.8148993079892
 30
0.0
 11
-761.4661348945206
 21
829.8148993079892
 31
0.0
  0
LINE
  5
21C
330
1F
100
AcDbEntity
  8
STANDARD
100
AcDbLine
 10
-757.9661348945206
 20
832.8148993079892
 30
0.0
 11
-757.9661348945206
 21
829.8148993079892
 31
0.0
  0
LINE
  5
21D
330
1F
100
AcDbEntity
  8
STANDARD
100
AcDbLine
 10
-754.4661348945206
 20
832.8148993079892
 30
0.0
 11
-754.4661348945206
 21
829.8148993079892
 31
0.0
  0
LINE
  5
21E
330
1F
100
AcDbEntity
  8
STANDARD
100
AcDbLine
 10
-750.9661348945206
 20
832.8148993079892
 30
0.0
 11
-750.9661348945206
 21
829.8148993079892
 31
0.0
  0
LINE
  5
21F
330
1F
100
AcDbEntity
  8
STANDARD
100
AcDbLine
 10
-722.9661348945206
 20
832.8148993079892
 30
0.0
 11
-722.9661348945206
 21
829.8148993079892
 31
0.0
  0
LINE
  5
220
330
1F
100
AcDbEntity
  8
STANDARD
100
AcDbLine
 10
-726.4661348945206
 20
832.8148993079892
 30
0.0
 11
-726.4661348945206
 21
829.8148993079892
 31
0.0
  0
LINE
  5
221
330
1F
100
AcDbEntity
  8
STANDARD
100
AcDbLine
 10
-729.9661348945206
 20
832.8148993079892
 30
0.0
 11
-729.9661348945206
 21
829.8148993079892
 31
0.0
  0
LINE
  5
222
330
1F
100
AcDbEntity
  8
STANDARD
100
AcDbLine
 10
-733.4661348945206
 20
832.8148993079892
 30
0.0
 11
-733.4661348945206
 21
829.8148993079892
 31
0.0
  0
LINE
  5
223
330
1F
100
AcDbEntity
  8
STANDARD
100
AcDbLine
 10
-736.9661348945206
 20
832.8148993079892
 30
0.0
 11
-736.9661348945206
 21
829.8148993079892
 31
0.0
  0
LINE
  5
224
330
1F
100
AcDbEntity
  8
STANDARD
100
AcDbLine
 10
-740.4661348945206
 20
832.8148993079892
 30
0.0
 11
-740.4661348945206
 21
829.8148993079892
 31
0.0
  0
LINE
  5
225
330
1F
100
AcDbEntity
  8
STANDARD
100
AcDbLine
 10
-743.9661348945206
 20
832.8148993079892
 30
0.0
 11
-743.9661348945206
 21
829.8148993079892
 31
0.0
  0
POLYLINE
  5
226
330
1F
100
AcDbEntity
  8
STANDARD
100
AcDb2dPolyline
 66
     1
 10
0.0
 20
0.0
 30
0.0
 70
     1
  0
VERTEX
  5
227
330
226
100
AcDbEntity
  8
STANDARD
100
AcDbVertex
100
AcDb2dVertex
 10
-747.4661348945206
 20
829.8148993079892
 30
0.0
  0
VERTEX
  5
228
330
226
100
AcDbEntity
  8
STANDARD
100
AcDbVertex
100
AcDb2dVertex
 10
-719.4661348945206
 20
829.8148993079892
 30
0.0
  0
VERTEX
  5
229
330
226
100
AcDbEntity
  8
STANDARD
100
AcDbVertex
100
AcDb2dVertex
 10
-719.4661348945206
 20
832.8148993079892
 30
0.0
  0
VERTEX
  5
22A
330
226
100
AcDbEntity
  8
STANDARD
100
AcDbVertex
100
AcDb2dVertex
 10
-747.4661348945206
 20
832.8148993079892
 30
0.0
  0
SEQEND
  5
22B
330
226
100
AcDbEntity
  8
STANDARD
  0
LINE
  5
22C
330
1F
100
AcDbEntity
  8
STANDARD
100
AcDbLine
 10
-694.9661348945206
 20
832.8148993079892
 30
0.0
 11
-694.9661348945206
 21
829.8148993079892
 31
0.0
  0
LINE
  5
22D
330
1F
100
AcDbEntity
  8
STANDARD
100
AcDbLine
 10
-698.4661348945206
 20
832.8148993079892
 30
0.0
 11
-698.4661348945206
 21
829.8148993079892
 31
0.0
  0
LINE
  5
22E
330
1F
100
AcDbEntity
  8
STANDARD
100
AcDbLine
 10
-701.9661348945206
 20
832.8148993079892
 30
0.0
 11
-701.9661348945206
 21
829.8148993079892
 31
0.0
  0
LINE
  5
22F
330
1F
100
AcDbEntity
  8
STANDARD
100
AcDbLine
 10
-705.4661348945206
 20
832.8148993079892
 30
0.0
 11
-705.4661348945206
 21
829.8148993079892
 31
0.0
  0
LINE
  5
230
330
1F
100
AcDbEntity
  8
STANDARD
100
AcDbLine
 10
-708.9661348945206
 20
832.8148993079892
 30
0.0
 11
-708.9661348945206
 21
829.8148993079892
 31
0.0
  0
LINE
  5
231
330
1F
100
AcDbEntity
  8
STANDARD
100
AcDbLine
 10
-712.4661348945206
 20
832.8148993079892
 30
0.0
 11
-712.4661348945206
 21
829.8148993079892
 31
0.0
  0
LINE
  5
232
330
1F
100
AcDbEntity
  8
STANDARD
100
AcDbLine
 10
-715.9661348945206
 20
832.8148993079892
 30
0.0
 11
-715.9661348945206
 21
829.8148993079892
 31
0.0
  0
POLYLINE
  5
233
330
1F
100
AcDbEntity
  8
STANDARD
100
AcDb2dPolyline
 66
     1
 10
0.0
 20
0.0
 30
0.0
 70
     1
  0
VERTEX
  5
234
330
233
100
AcDbEntity
  8
STANDARD
100
AcDbVertex
100
AcDb2dVertex
 10
-719.4661348945206
 20
829.8148993079892
 30
0.0
  0
VERTEX
  5
235
330
233
100
AcDbEntity
  8
STANDARD
100
AcDbVertex
100
AcDb2dVertex
 10
-691.4661348945206
 20
829.8148993079892
 30
0.0
  0
VERTEX
  5
236
330
233
100
AcDbEntity
  8
STANDARD
100
AcDbVertex
100
AcDb2dVertex
 10
-691.4661348945206
 20
832.8148993079892
 30
0.0
  0
VERTEX
  5
237
330
233
100
AcDbEntity
  8
STANDARD
100
AcDbVertex
100
AcDb2dVertex
 10
-719.4661348945206
 20
832.8148993079892
 30
0.0
  0
SEQEND
  5
238
330
233
100
AcDbEntity
  8
STANDARD
  0
LINE
  5
239
330
1F
100
AcDbEntity
  8
AUFSPANNFLAECHE_ANLAGE
100
AcDbLine
 10
-719.4661348945206
 20
832.8148993079892
 30
0.0
 11
-719.4661348945206
 21
837.7855165861123
 31
0.0
  0
LINE
  5
23A
330
1F
100
AcDbEntity
  8
AUFSPANNFLAECHE_ANLAGE
100
AcDbLine
 10
-747.4661348945206
 20
832.8148993079892
 30
0.0
 11
-747.4661348945206
 21
838.1246129702438
 31
0.0
  0
LINE
  5
23B
330
1F
100
AcDbEntity
  8
AUFSPANNFLAECHE_ANLAGE
100
AcDbLine
 10
-719.4661348945206
 20
828.3569752223057
 30
0.0
 11
-719.4661348945206
 21
829.9766420324418
 31
0.0
  0
LINE
  5
23C
330
1F
100
AcDbEntity
  8
AUFSPANNFLAECHE_ANLAGE
100
AcDbLine
 10
-747.4661348945206
 20
828.3569752223057
 30
0.0
 11
-747.4661348945206
 21
830.3157384165733
 31
0.0
  0
POLYLINE
  5
23D
330
1F
100
AcDbEntity
  8
STANDARD
100
AcDb2dPolyline
 66
     1
 10
0.0
 20
0.0
 30
0.0
 70
     1
  0
VERTEX
  5
23E
330
23D
100
AcDbEntity
  8
STANDARD
100
AcDbVertex
100
AcDb2dVertex
 10
-719.4661348945206
 20
825.3569752223057
 30
0.0
  0
VERTEX
  5
23F
330
23D
100
AcDbEntity
  8
STANDARD
100
AcDbVertex
100
AcDb2dVertex
 10
-691.4661348945206
 20
825.3569752223057
 30
0.0
  0
VERTEX
  5
240
330
23D
100
AcDbEntity
  8
STANDARD
100
AcDbVertex
100
AcDb2dVertex
 10
-691.4661348945206
 20
828.3569752223057
 30
0.0
  0
VERTEX
  5
241
330
23D
100
AcDbEntity
  8
STANDARD
100
AcDbVertex
100
AcDb2dVertex
 10
-719.4661348945206
 20
828.3569752223057
 30
0.0
  0
SEQEND
  5
242
330
23D
100
AcDbEntity
  8
STANDARD
  0
LINE
  5
243
330
1F
100
AcDbEntity
  8
STANDARD
100
AcDbLine
 10
-715.9661348945206
 20
828.3569752223057
 30
0.0
 11
-715.9661348945206
 21
825.3569752223057
 31
0.0
  0
LINE
  5
244
330
1F
100
AcDbEntity
  8
STANDARD
100
AcDbLine
 10
-712.4661348945206
 20
828.3569752223057
 30
0.0
 11
-712.4661348945206
 21
825.3569752223057
 31
0.0
  0
LINE
  5
245
330
1F
100
AcDbEntity
  8
STANDARD
100
AcDbLine
 10
-708.9661348945206
 20
828.3569752223057
 30
0.0
 11
-708.9661348945206
 21
825.3569752223057
 31
0.0
  0
LINE
  5
246
330
1F
100
AcDbEntity
  8
STANDARD
100
AcDbLine
 10
-705.4661348945206
 20
828.3569752223057
 30
0.0
 11
-705.4661348945206
 21
825.3569752223057
 31
0.0
  0
LINE
  5
247
330
1F
100
AcDbEntity
  8
STANDARD
100
AcDbLine
 10
-701.9661348945206
 20
828.3569752223057
 30
0.0
 11
-701.9661348945206
 21
825.3569752223057
 31
0.0
  0
LINE
  5
248
330
1F
100
AcDbEntity
  8
STANDARD
100
AcDbLine
 10
-698.4661348945206
 20
828.3569752223057
 30
0.0
 11
-698.4661348945206
 21
825.3569752223057
 31
0.0
  0
LINE
  5
249
330
1F
100
AcDbEntity
  8
STANDARD
100
AcDbLine
 10
-694.9661348945206
 20
828.3569752223057
 30
0.0
 11
-694.9661348945206
 21
825.3569752223057
 31
0.0
  0
POLYLINE
  5
24A
330
1F
100
AcDbEntity
  8
STANDARD
100
AcDb2dPolyline
 66
     1
 10
0.0
 20
0.0
 30
0.0
 70
     1
  0
VERTEX
  5
24B
330
24A
100
AcDbEntity
  8
STANDARD
100
AcDbVertex
100
AcDb2dVertex
 10
-747.4661348945206
 20
825.3569752223057
 30
0.0
  0
VERTEX
  5
24C
330
24A
100
AcDbEntity
  8
STANDARD
100
AcDbVertex
100
AcDb2dVertex
 10
-719.4661348945206
 20
825.3569752223057
 30
0.0
  0
VERTEX
  5
24D
330
24A
100
AcDbEntity
  8
STANDARD
100
AcDbVertex
100
AcDb2dVertex
 10
-719.4661348945206
 20
828.3569752223057
 30
0.0
  0
VERTEX
  5
24E
330
24A
100
AcDbEntity
  8
STANDARD
100
AcDbVertex
100
AcDb2dVertex
 10
-747.4661348945206
 20
828.3569752223057
 30
0.0
  0
SEQEND
  5
24F
330
24A
100
AcDbEntity
  8
STANDARD
  0
LINE
  5
250
330
1F
100
AcDbEntity
  8
STANDARD
100
AcDbLine
 10
-743.9661348945206
 20
828.3569752223057
 30
0.0
 11
-743.9661348945206
 21
825.3569752223057
 31
0.0
  0
LINE
  5
251
330
1F
100
AcDbEntity
  8
STANDARD
100
AcDbLine
 10
-740.4661348945206
 20
828.3569752223057
 30
0.0
 11
-740.4661348945206
 21
825.3569752223057
 31
0.0
  0
LINE
  5
252
330
1F
100
AcDbEntity
  8
STANDARD
100
AcDbLine
 10
-736.9661348945206
 20
828.3569752223057
 30
0.0
 11
-736.9661348945206
 21
825.3569752223057
 31
0.0
  0
LINE
  5
253
330
1F
100
AcDbEntity
  8
STANDARD
100
AcDbLine
 10
-733.4661348945206
 20
828.3569752223057
 30
0.0
 11
-733.4661348945206
 21
825.3569752223057
 31
0.0
  0
LINE
  5
254
330
1F
100
AcDbEntity
  8
STANDARD
100
AcDbLine
 10
-729.9661348945206
 20
828.3569752223057
 30
0.0
 11
-729.9661348945206
 21
825.3569752223057
 31
0.0
  0
LINE
  5
255
330
1F
100
AcDbEntity
  8
STANDARD
100
AcDbLine
 10
-726.4661348945206
 20
828.3569752223057
 30
0.0
 11
-726.4661348945206
 21
825.3569752223057
 31
0.0
  0
LINE
  5
256
330
1F
100
AcDbEntity
  8
STANDARD
100
AcDbLine
 10
-722.9661348945206
 20
828.3569752223057
 30
0.0
 11
-722.9661348945206
 21
825.3569752223057
 31
0.0
  0
LINE
  5
257
330
1F
100
AcDbEntity
  8
STANDARD
100
AcDbLine
 10
-750.9661348945206
 20
828.3569752223057
 30
0.0
 11
-750.9661348945206
 21
825.3569752223057
 31
0.0
  0
LINE
  5
258
330
1F
100
AcDbEntity
  8
STANDARD
100
AcDbLine
 10
-754.4661348945206
 20
828.3569752223057
 30
0.0
 11
-754.4661348945206
 21
825.3569752223057
 31
0.0
  0
LINE
  5
259
330
1F
100
AcDbEntity
  8
STANDARD
100
AcDbLine
 10
-757.9661348945206
 20
828.3569752223057
 30
0.0
 11
-757.9661348945206
 21
825.3569752223057
 31
0.0
  0
LINE
  5
25A
330
1F
100
AcDbEntity
  8
STANDARD
100
AcDbLine
 10
-761.4661348945206
 20
828.3569752223057
 30
0.0
 11
-761.4661348945206
 21
825.3569752223057
 31
0.0
  0
LINE
  5
25B
330
1F
100
AcDbEntity
  8
STANDARD
100
AcDbLine
 10
-764.9661348945206
 20
828.3569752223057
 30
0.0
 11
-764.9661348945206
 21
825.3569752223057
 31
0.0
  0
LINE
  5
25C
330
1F
100
AcDbEntity
  8
STANDARD
100
AcDbLine
 10
-768.4661348945206
 20
828.3569752223057
 30
0.0
 11
-768.4661348945206
 21
825.3569752223057
 31
0.0
  0
LINE
  5
25D
330
1F
100
AcDbEntity
  8
STANDARD
100
AcDbLine
 10
-771.9661348945206
 20
828.3569752223057
 30
0.0
 11
-771.9661348945206
 21
825.3569752223057
 31
0.0
  0
POLYLINE
  5
25E
330
1F
100
AcDbEntity
  8
STANDARD
100
AcDb2dPolyline
 66
     1
 10
0.0
 20
0.0
 30
0.0
 70
     1
  0
VERTEX
  5
25F
330
25E
100
AcDbEntity
  8
STANDARD
100
AcDbVertex
100
AcDb2dVertex
 10
-775.4661348945206
 20
825.3569752223057
 30
0.0
  0
VERTEX
  5
260
330
25E
100
AcDbEntity
  8
STANDARD
100
AcDbVertex
100
AcDb2dVertex
 10
-747.4661348945206
 20
825.3569752223057
 30
0.0
  0
VERTEX
  5
261
330
25E
100
AcDbEntity
  8
STANDARD
100
AcDbVertex
100
AcDb2dVertex
 10
-747.4661348945206
 20
828.3569752223057
 30
0.0
  0
VERTEX
  5
262
330
25E
100
AcDbEntity
  8
STANDARD
100
AcDbVertex
100
AcDb2dVertex
 10
-775.4661348945206
 20
828.3569752223057
 30
0.0
  0
SEQEND
  5
263
330
25E
100
AcDbEntity
  8
STANDARD
  0
LINE
  5
264
330
1F
100
AcDbEntity
  8
AUFSPANNFLAECHE_ANLAGE
100
AcDbLine
 10
-761.4661348945205
 20
819.150333508232
 30
0.0
 11
-761.4661348945205
 21
820.7700003183681
 31
0.0
  0
LINE
  5
265
330
1F
100
AcDbEntity
  8
AUFSPANNFLAECHE_ANLAGE
100
AcDbLine
 10
-740.4661348945205
 20
819.150333508232
 30
0.0
 11
-740.4661348945205
 21
820.7700003183681
 31
0.0
  0
LINE
  5
266
330
1F
100
AcDbEntity
  8
AUFSPANNFLAECHE_ANLAGE
100
AcDbLine
 10
-712.4661348945205
 20
819.150333508232
 30
0.0
 11
-712.4661348945205
 21
820.7700003183681
 31
0.0
  0
POLYLINE
  5
267
330
1F
100
AcDbEntity
  8
STANDARD
100
AcDb2dPolyline
 66
     1
 10
0.0
 20
0.0
 30
0.0
 70
     1
  0
VERTEX
  5
268
330
267
100
AcDbEntity
  8
STANDARD
100
AcDbVertex
100
AcDb2dVertex
 10
-775.4661348945205
 20
816.150333508232
 30
0.0
  0
VERTEX
  5
269
330
267
100
AcDbEntity
  8
STANDARD
100
AcDbVertex
100
AcDb2dVertex
 10
-761.4661348945205
 20
816.150333508232
 30
0.0
  0
VERTEX
  5
26A
330
267
100
AcDbEntity
  8
STANDARD
100
AcDbVertex
100
AcDb2dVertex
 10
-761.4661348945205
 20
819.150333508232
 30
0.0
  0
VERTEX
  5
26B
330
267
100
AcDbEntity
  8
STANDARD
100
AcDbVertex
100
AcDb2dVertex
 10
-775.4661348945205
 20
819.150333508232
 30
0.0
  0
SEQEND
  5
26C
330
267
100
AcDbEntity
  8
STANDARD
  0
LINE
  5
26D
330
1F
100
AcDbEntity
  8
STANDARD
100
AcDbLine
 10
-764.9661348945205
 20
819.150333508232
 30
0.0
 11
-764.9661348945205
 21
816.150333508232
 31
0.0
  0
LINE
  5
26E
330
1F
100
AcDbEntity
  8
STANDARD
100
AcDbLine
 10
-768.4661348945205
 20
819.150333508232
 30
0.0
 11
-768.4661348945205
 21
816.150333508232
 31
0.0
  0
LINE
  5
26F
330
1F
100
AcDbEntity
  8
STANDARD
100
AcDbLine
 10
-771.9661348945205
 20
819.150333508232
 30
0.0
 11
-771.9661348945205
 21
816.150333508232
 31
0.0
  0
LINE
  5
270
330
1F
100
AcDbEntity
  8
STANDARD
100
AcDbLine
 10
-775.4661348945205
 20
819.150333508232
 30
0.0
 11
-775.4661348945205
 21
816.150333508232
 31
0.0
  0
POLYLINE
  5
271
330
1F
100
AcDbEntity
  8
STANDARD
100
AcDb2dPolyline
 66
     1
 10
0.0
 20
0.0
 30
0.0
 70
     1
  0
VERTEX
  5
272
330
271
100
AcDbEntity
  8
STANDARD
100
AcDbVertex
100
AcDb2dVertex
 10
-761.4661348945205
 20
816.150333508232
 30
0.0
  0
VERTEX
  5
273
330
271
100
AcDbEntity
  8
STANDARD
100
AcDbVertex
100
AcDb2dVertex
 10
-740.4661348945205
 20
816.150333508232
 30
0.0
  0
VERTEX
  5
274
330
271
100
AcDbEntity
  8
STANDARD
100
AcDbVertex
100
AcDb2dVertex
 10
-740.4661348945205
 20
819.150333508232
 30
0.0
  0
VERTEX
  5
275
330
271
100
AcDbEntity
  8
STANDARD
100
AcDbVertex
100
AcDb2dVertex
 10
-761.4661348945205
 20
819.150333508232
 30
0.0
  0
SEQEND
  5
276
330
271
100
AcDbEntity
  8
STANDARD
  0
LINE
  5
277
330
1F
100
AcDbEntity
  8
STANDARD
100
AcDbLine
 10
-761.4661348945205
 20
819.150333508232
 30
0.0
 11
-761.4661348945205
 21
816.150333508232
 31
0.0
  0
LINE
  5
278
330
1F
100
AcDbEntity
  8
STANDARD
100
AcDbLine
 10
-757.9661348945205
 20
819.150333508232
 30
0.0
 11
-757.9661348945205
 21
816.150333508232
 31
0.0
  0
LINE
  5
279
330
1F
100
AcDbEntity
  8
STANDARD
100
AcDbLine
 10
-754.4661348945205
 20
819.150333508232
 30
0.0
 11
-754.4661348945205
 21
816.150333508232
 31
0.0
  0
LINE
  5
27A
330
1F
100
AcDbEntity
  8
STANDARD
100
AcDbLine
 10
-750.9661348945205
 20
819.150333508232
 30
0.0
 11
-750.9661348945205
 21
816.150333508232
 31
0.0
  0
LINE
  5
27B
330
1F
100
AcDbEntity
  8
STANDARD
100
AcDbLine
 10
-747.4661348945205
 20
819.150333508232
 30
0.0
 11
-747.4661348945205
 21
816.150333508232
 31
0.0
  0
LINE
  5
27C
330
1F
100
AcDbEntity
  8
STANDARD
100
AcDbLine
 10
-743.9661348945205
 20
819.150333508232
 30
0.0
 11
-743.9661348945205
 21
816.150333508232
 31
0.0
  0
LINE
  5
27D
330
1F
100
AcDbEntity
  8
STANDARD
100
AcDbLine
 10
-736.9661348945205
 20
819.150333508232
 30
0.0
 11
-736.9661348945205
 21
816.150333508232
 31
0.0
  0
LINE
  5
27E
330
1F
100
AcDbEntity
  8
STANDARD
100
AcDbLine
 10
-733.4661348945205
 20
819.150333508232
 30
0.0
 11
-733.4661348945205
 21
816.150333508232
 31
0.0
  0
LINE
  5
27F
330
1F
100
AcDbEntity
  8
STANDARD
100
AcDbLine
 10
-729.9661348945205
 20
819.150333508232
 30
0.0
 11
-729.9661348945205
 21
816.150333508232
 31
0.0
  0
LINE
  5
280
330
1F
100
AcDbEntity
  8
STANDARD
100
AcDbLine
 10
-726.4661348945205
 20
819.150333508232
 30
0.0
 11
-726.4661348945205
 21
816.150333508232
 31
0.0
  0
LINE
  5
281
330
1F
100
AcDbEntity
  8
STANDARD
100
AcDbLine
 10
-722.9661348945205
 20
819.150333508232
 30
0.0
 11
-722.9661348945205
 21
816.150333508232
 31
0.0
  0
LINE
  5
282
330
1F
100
AcDbEntity
  8
STANDARD
100
AcDbLine
 10
-719.4661348945205
 20
819.150333508232
 30
0.0
 11
-719.4661348945205
 21
816.150333508232
 31
0.0
  0
LINE
  5
283
330
1F
100
AcDbEntity
  8
STANDARD
100
AcDbLine
 10
-715.9661348945205
 20
819.150333508232
 30
0.0
 11
-715.9661348945205
 21
816.150333508232
 31
0.0
  0
LINE
  5
284
330
1F
100
AcDbEntity
  8
STANDARD
100
AcDbLine
 10
-694.9661348945205
 20
819.150333508232
 30
0.0
 11
-694.9661348945205
 21
816.150333508232
 31
0.0
  0
LINE
  5
285
330
1F
100
AcDbEntity
  8
STANDARD
100
AcDbLine
 10
-698.4661348945205
 20
819.150333508232
 30
0.0
 11
-698.4661348945205
 21
816.150333508232
 31
0.0
  0
LINE
  5
286
330
1F
100
AcDbEntity
  8
STANDARD
100
AcDbLine
 10
-701.9661348945205
 20
819.150333508232
 30
0.0
 11
-701.9661348945205
 21
816.150333508232
 31
0.0
  0
LINE
  5
287
330
1F
100
AcDbEntity
  8
STANDARD
100
AcDbLine
 10
-705.4661348945205
 20
819.150333508232
 30
0.0
 11
-705.4661348945205
 21
816.150333508232
 31
0.0
  0
LINE
  5
288
330
1F
100
AcDbEntity
  8
STANDARD
100
AcDbLine
 10
-708.9661348945205
 20
819.150333508232
 30
0.0
 11
-708.9661348945205
 21
816.150333508232
 31
0.0
  0
LINE
  5
289
330
1F
100
AcDbEntity
  8
STANDARD
100
AcDbLine
 10
-712.4661348945205
 20
819.150333508232
 30
0.0
 11
-712.4661348945205
 21
816.150333508232
 31
0.0
  0
POLYLINE
  5
28A
330
1F
100
AcDbEntity
  8
STANDARD
100
AcDb2dPolyline
 66
     1
 10
0.0
 20
0.0
 30
0.0
 70
     1
  0
VERTEX
  5
28B
330
28A
100
AcDbEntity
  8
STANDARD
100
AcDbVertex
100
AcDb2dVertex
 10
-712.4661348945205
 20
816.150333508232
 30
0.0
  0
VERTEX
  5
28C
330
28A
100
AcDbEntity
  8
STANDARD
100
AcDbVertex
100
AcDb2dVertex
 10
-691.4661348945205
 20
816.150333508232
 30
0.0
  0
VERTEX
  5
28D
330
28A
100
AcDbEntity
  8
STANDARD
100
AcDbVertex
100
AcDb2dVertex
 10
-691.4661348945205
 20
819.150333508232
 30
0.0
  0
VERTEX
  5
28E
330
28A
100
AcDbEntity
  8
STANDARD
100
AcDbVertex
100
AcDb2dVertex
 10
-712.4661348945205
 20
819.150333508232
 30
0.0
  0
SEQEND
  5
28F
330
28A
100
AcDbEntity
  8
STANDARD
  0
MTEXT
  5
290
330
1F
100
AcDbEntity
  8
STANDARD
100
AcDbMText
 10
-712.4661348945205
 20
817.3886259469587
 30
0.0
 40
1.127800076479913
 41
3.892948456765002
 71
     7
 72
     1
  1
\fArial;+5V
1001
ACAD
1000
MTEXTBEGIN
1070
    73
1070
     2
1070
    44
1040
0.9638554216867471
1000
MTEXTEND
1000
ACAD_MTEXT_DEFINED_HEIGHT_BEGIN
1070
    46
1040
1.148182005572924
1000
ACAD_MTEXT_DEFINED_HEIGHT_END
  0
MTEXT
  5
291
330
1F
100
AcDbEntity
  8
STANDARD
100
AcDbMText
 10
-694.9661348945205
 20
817.3886259469587
 30
0.0
 40
1.127800076479913
 41
4.45684849500496
 71
     7
 72
     1
  1
\fArial;GND
1001
ACAD
1000
MTEXTBEGIN
1070
    73
1070
     2
1070
    44
1040
0.9638554216867471
1000
MTEXTEND
1000
ACAD_MTEXT_DEFINED_HEIGHT_BEGIN
1070
    46
1040
1.168563934665934
1000
ACAD_MTEXT_DEFINED_HEIGHT_END
  0
MTEXT
  5
292
330
1F
100
AcDbEntity
  8
STANDARD
100
AcDbMText
 10
-743.9661348945205
 20
817.3886259469587
 30
0.0
 40
1.127800076479913
 41
4.45684849500496
 71
     7
 72
     1
  1
\fArial;GND
1001
ACAD
1000
MTEXTBEGIN
1070
    73
1070
     2
1070
    44
1040
0.9638554216867471
1000
MTEXTEND
1000
ACAD_MTEXT_DEFINED_HEIGHT_BEGIN
1070
    46
1040
1.168563934665934
1000
ACAD_MTEXT_DEFINED_HEIGHT_END
  0
MTEXT
  5
293
330
1F
100
AcDbEntity
  8
STANDARD
100
AcDbMText
 10
-761.4661348945205
 20
817.3886259469587
 30
0.0
 40
1.127800076479913
 41
3.892948456765002
 71
     7
 72
     1
  1
\fArial;+5V
1001
ACAD
1000
MTEXTBEGIN
1070
    73
1070
     2
1070
    44
1040
0.9638554216867471
1000
MTEXTEND
1000
ACAD_MTEXT_DEFINED_HEIGHT_BEGIN
1070
    46
1040
1.148182005572924
1000
ACAD_MTEXT_DEFINED_HEIGHT_END
  0
MTEXT
  5
294
330
1F
100
AcDbEntity
  8
STANDARD
100
AcDbMText
 10
-775.529374551627
 20
817.395419923323
 30
0.0
 40
1.127800076479913
 41
4.45684849500496
 71
     7
 72
     1
  1
\fArial;GND
1001
ACAD
1000
MTEXTBEGIN
1070
    73
1070
     2
1070
    44
1040
0.9638554216867471
1000
MTEXTEND
1000
ACAD_MTEXT_DEFINED_HEIGHT_BEGIN
1070
    46
1040
1.168563934665934
1000
ACAD_MTEXT_DEFINED_HEIGHT_END
  0
MTEXT
  5
295
330
1F
100
AcDbEntity
  8
STANDARD
100
AcDbMText
 10
-772.029374551627
 20
817.395419923323
 30
0.0
 40
1.127800076479913
 41
4.45684849500496
 71
     7
 72
     1
  1
\fArial;GND
1001
ACAD
1000
MTEXTBEGIN
1070
    73
1070
     2
1070
    44
1040
0.9638554216867471
1000
MTEXTEND
1000
ACAD_MTEXT_DEFINED_HEIGHT_BEGIN
1070
    46
1040
1.168563934665934
1000
ACAD_MTEXT_DEFINED_HEIGHT_END
  0
MTEXT
  5
296
330
1F
100
AcDbEntity
  8
STANDARD
100
AcDbMText
 10
-757.9661348945205
 20
817.3886259469587
 30
0.0
 40
1.127800076479913
 41
3.560043614912498
 71
     7
 72
     1
  1
\fArial;TX-
1001
ACAD
1000
MTEXTBEGIN
1070
    73
1070
     2
1070
    44
1040
0.9638554216867471
1000
MTEXTEND
1000
ACAD_MTEXT_DEFINED_HEIGHT_BEGIN
1070
    46
1040
1.127800076479913
1000
ACAD_MTEXT_DEFINED_HEIGHT_END
  0
MTEXT
  5
297
330
1F
100
AcDbEntity
  8
STANDARD
100
AcDbMText
 10
-754.4661348945205
 20
817.3886259469587
 30
0.0
 40
1.127800076479913
 41
3.906536409493676
 71
     7
 72
     1
  1
\fArial;TX+
1001
ACAD
1000
MTEXTBEGIN
1070
    73
1070
     2
1070
    44
1040
0.9638554216867471
1000
MTEXTEND
1000
ACAD_MTEXT_DEFINED_HEIGHT_BEGIN
1070
    46
1040
1.127800076479913
1000
ACAD_MTEXT_DEFINED_HEIGHT_END
  0
MTEXT
  5
298
330
1F
100
AcDbEntity
  8
STANDARD
100
AcDbMText
 10
-750.9661348945205
 20
817.3886259469587
 30
0.0
 40
1.127800076479913
 41
3.648365307648877
 71
     7
 72
     1
  1
\fArial;RX-
1001
ACAD
1000
MTEXTBEGIN
1070
    73
1070
     2
1070
    44
1040
0.9638554216867471
1000
MTEXTEND
1000
ACAD_MTEXT_DEFINED_HEIGHT_BEGIN
1070
    46
1040
1.127800076479913
1000
ACAD_MTEXT_DEFINED_HEIGHT_END
  0
MTEXT
  5
299
330
1F
100
AcDbEntity
  8
STANDARD
100
AcDbMText
 10
-747.4661348945205
 20
817.3886259469587
 30
0.0
 40
1.127800076479913
 41
3.994858102230055
 71
     7
 72
     1
  1
\fArial;RX+
1001
ACAD
1000
MTEXTBEGIN
1070
    73
1070
     2
1070
    44
1040
0.9638554216867471
1000
MTEXTEND
1000
ACAD_MTEXT_DEFINED_HEIGHT_BEGIN
1070
    46
1040
1.127800076479913
1000
ACAD_MTEXT_DEFINED_HEIGHT_END
  0
MTEXT
  5
29A
330
1F
100
AcDbEntity
  8
STANDARD
100
AcDbMText
 10
-740.4661348945205
 20
817.3886259469587
 30
0.0
 40
1.127800076479913
 41
4.069591842237759
 71
     7
 72
     1
  1
\fArial;IDX-
1001
ACAD
1000
MTEXTBEGIN
1070
    73
1070
     2
1070
    44
1040
0.9638554216867471
1000
MTEXTEND
1000
ACAD_MTEXT_DEFINED_HEIGHT_BEGIN
1070
    46
1040
1.127800076479913
1000
ACAD_MTEXT_DEFINED_HEIGHT_END
  0
MTEXT
  5
29B
330
1F
100
AcDbEntity
  8
STANDARD
100
AcDbMText
 10
-736.9661348945205
 20
817.3886259469587
 30
0.0
 40
1.127800076479913
 41
4.416084636818938
 71
     7
 72
     1
  1
\fArial;IDX+
1001
ACAD
1000
MTEXTBEGIN
1070
    73
1070
     2
1070
    44
1040
0.9638554216867471
1000
MTEXTEND
1000
ACAD_MTEXT_DEFINED_HEIGHT_BEGIN
1070
    46
1040
1.127800076479913
1000
ACAD_MTEXT_DEFINED_HEIGHT_END
  0
MTEXT
  5
29C
330
1F
100
AcDbEntity
  8
STANDARD
100
AcDbMText
 10
-733.4661348945205
 20
817.3886259469587
 30
0.0
 40
1.127800076479913
 41
3.892948456765002
 71
     7
 72
     1
  1
\fArial;+5V
1001
ACAD
1000
MTEXTBEGIN
1070
    73
1070
     2
1070
    44
1040
0.9638554216867471
1000
MTEXTEND
1000
ACAD_MTEXT_DEFINED_HEIGHT_BEGIN
1070
    46
1040
1.148182005572924
1000
ACAD_MTEXT_DEFINED_HEIGHT_END
  0
MTEXT
  5
29D
330
1F
100
AcDbEntity
  8
STANDARD
100
AcDbMText
 10
-722.9661348945205
 20
817.3886259469587
 30
0.0
 40
1.127800076479913
 41
4.45684849500496
 71
     7
 72
     1
  1
\fArial;GND
1001
ACAD
1000
MTEXTBEGIN
1070
    73
1070
     2
1070
    44
1040
0.9638554216867471
1000
MTEXTEND
1000
ACAD_MTEXT_DEFINED_HEIGHT_BEGIN
1070
    46
1040
1.168563934665934
1000
ACAD_MTEXT_DEFINED_HEIGHT_END
  0
MTEXT
  5
29E
330
1F
100
AcDbEntity
  8
STANDARD
100
AcDbMText
 10
-715.9661348945205
 20
840.833464241929
 30
0.0
 40
1.127800076479913
 41
3.594013496734182
 71
     7
 72
     1
  1
\fArial;enc
1001
ACAD
1000
MTEXTBEGIN
1070
    73
1070
     2
1070
    44
1040
0.9638554216867471
1000
MTEXTEND
1000
ACAD_MTEXT_DEFINED_HEIGHT_BEGIN
1070
    46
1040
0.8492470455421035
1000
ACAD_MTEXT_DEFINED_HEIGHT_END
  0
MTEXT
  5
29F
330
1F
100
AcDbEntity
  8
STANDARD
100
AcDbMText
 10
-719.4661348945205
 20
840.833464241929
 30
0.0
 40
1.127800076479913
 41
3.594013496734182
 71
     7
 72
     1
  1
\fArial;enc
1001
ACAD
1000
MTEXTBEGIN
1070
    73
1070
     2
1070
    44
1040
0.9638554216867471
1000
MTEXTEND
1000
ACAD_MTEXT_DEFINED_HEIGHT_BEGIN
1070
    46
1040
0.8492470455421035
1000
ACAD_MTEXT_DEFINED_HEIGHT_END
  0
MTEXT
  5
2A0
330
1F
100
AcDbEntity
  8
STANDARD
100
AcDbMText
 10
-722.9661348945205
 20
840.833464241929
 30
0.0
 40
1.127800076479913
 41
4.45684849500496
 71
     7
 72
     1
  1
\fArial;GND
1001
ACAD
1000
MTEXTBEGIN
1070
    73
1070
     2
1070
    44
1040
0.9638554216867471
1000
MTEXTEND
1000
ACAD_MTEXT_DEFINED_HEIGHT_BEGIN
1070
    46
1040
1.168563934665934
1000
ACAD_MTEXT_DEFINED_HEIGHT_END
  0
MTEXT
  5
2A1
330
1F
100
AcDbEntity
  8
STANDARD
100
AcDbMText
 10
-726.4661348945205
 20
840.833464241929
 30
0.0
 40
1.127800076479913
 41
3.594013496734182
 71
     7
 72
     1
  1
\fArial;enc
1001
ACAD
1000
MTEXTBEGIN
1070
    73
1070
     2
1070
    44
1040
0.9638554216867471
1000
MTEXTEND
1000
ACAD_MTEXT_DEFINED_HEIGHT_BEGIN
1070
    46
1040
0.8492470455421035
1000
ACAD_MTEXT_DEFINED_HEIGHT_END
  0
MTEXT
  5
2A2
330
1F
100
AcDbEntity
  8
STANDARD
100
AcDbMText
 10
-729.9661348945205
 20
840.833464241929
 30
0.0
 40
1.127800076479913
 41
3.594013496734182
 71
     7
 72
     1
  1
\fArial;enc
1001
ACAD
1000
MTEXTBEGIN
1070
    73
1070
     2
1070
    44
1040
0.9638554216867471
1000
MTEXTEND
1000
ACAD_MTEXT_DEFINED_HEIGHT_BEGIN
1070
    46
1040
0.8492470455421035
1000
ACAD_MTEXT_DEFINED_HEIGHT_END
  0
MTEXT
  5
2A3
330
1F
100
AcDbEntity
  8
STANDARD
100
AcDbMText
 10
-733.4661348945205
 20
840.833464241929
 30
0.0
 40
1.127800076479913
 41
3.892948456765002
 71
     7
 72
     1
  1
\fArial;+5V
1001
ACAD
1000
MTEXTBEGIN
1070
    73
1070
     2
1070
    44
1040
0.9638554216867471
1000
MTEXTEND
1000
ACAD_MTEXT_DEFINED_HEIGHT_BEGIN
1070
    46
1040
1.148182005572924
1000
ACAD_MTEXT_DEFINED_HEIGHT_END
  0
MTEXT
  5
2A4
330
1F
100
AcDbEntity
  8
STANDARD
100
AcDbMText
 10
-736.9661348945205
 20
840.833464241929
 30
0.0
 40
1.127800076479913
 41
4.416084636818938
 71
     7
 72
     1
  1
\fArial;IDX+
1001
ACAD
1000
MTEXTBEGIN
1070
    73
1070
     2
1070
    44
1040
0.9638554216867471
1000
MTEXTEND
1000
ACAD_MTEXT_DEFINED_HEIGHT_BEGIN
1070
    46
1040
1.127800076479913
1000
ACAD_MTEXT_DEFINED_HEIGHT_END
  0
MTEXT
  5
2A5
330
1F
100
AcDbEntity
  8
STANDARD
100
AcDbMText
 10
-740.4661348945205
 20
840.833464241929
 30
0.0
 40
1.127800076479913
 41
4.069591842237759
 71
     7
 72
     1
  1
\fArial;IDX-
1001
ACAD
1000
MTEXTBEGIN
1070
    73
1070
     2
1070
    44
1040
0.9638554216867471
1000
MTEXTEND
1000
ACAD_MTEXT_DEFINED_HEIGHT_BEGIN
1070
    46
1040
1.127800076479913
1000
ACAD_MTEXT_DEFINED_HEIGHT_END
  0
MTEXT
  5
2A6
330
1F
100
AcDbEntity
  8
STANDARD
100
AcDbMText
 10
-747.4661348945205
 20
840.833464241929
 30
0.0
 40
1.127800076479913
 41
3.994858102230055
 71
     7
 72
     1
  1
\fArial;RX+
1001
ACAD
1000
MTEXTBEGIN
1070
    73
1070
     2
1070
    44
1040
0.9638554216867471
1000
MTEXTEND
1000
ACAD_MTEXT_DEFINED_HEIGHT_BEGIN
1070
    46
1040
1.127800076479913
1000
ACAD_MTEXT_DEFINED_HEIGHT_END
  0
MTEXT
  5
2A7
330
1F
100
AcDbEntity
  8
STANDARD
100
AcDbMText
 10
-750.9661348945205
 20
840.833464241929
 30
0.0
 40
1.127800076479913
 41
3.648365307648877
 71
     7
 72
     1
  1
\fArial;RX-
1001
ACAD
1000
MTEXTBEGIN
1070
    73
1070
     2
1070
    44
1040
0.9638554216867471
1000
MTEXTEND
1000
ACAD_MTEXT_DEFINED_HEIGHT_BEGIN
1070
    46
1040
1.127800076479913
1000
ACAD_MTEXT_DEFINED_HEIGHT_END
  0
MTEXT
  5
2A8
330
1F
100
AcDbEntity
  8
STANDARD
100
AcDbMText
 10
-754.4661348945205
 20
840.833464241929
 30
0.0
 40
1.127800076479913
 41
3.906536409493676
 71
     7
 72
     1
  1
\fArial;TX+
1001
ACAD
1000
MTEXTBEGIN
1070
    73
1070
     2
1070
    44
1040
0.9638554216867471
1000
MTEXTEND
1000
ACAD_MTEXT_DEFINED_HEIGHT_BEGIN
1070
    46
1040
1.127800076479913
1000
ACAD_MTEXT_DEFINED_HEIGHT_END
  0
MTEXT
  5
2A9
330
1F
100
AcDbEntity
  8
STANDARD
100
AcDbMText
 10
-757.9661348945205
 20
840.833464241929
 30
0.0
 40
1.127800076479913
 41
3.560043614912498
 71
     7
 72
     1
  1
\fArial;TX-
1001
ACAD
1000
MTEXTBEGIN
1070
    73
1070
     2
1070
    44
1040
0.9638554216867471
1000
MTEXTEND
1000
ACAD_MTEXT_DEFINED_HEIGHT_BEGIN
1070
    46
1040
1.127800076479913
1000
ACAD_MTEXT_DEFINED_HEIGHT_END
  0
MTEXT
  5
2AA
330
1F
100
AcDbEntity
  8
STANDARD
100
AcDbMText
 10
-772.029374551627
 20
840.8402582182933
 30
0.0
 40
1.127800076479913
 41
4.45684849500496
 71
     7
 72
     1
  1
\fArial;GND
1001
ACAD
1000
MTEXTBEGIN
1070
    73
1070
     2
1070
    44
1040
0.9638554216867471
1000
MTEXTEND
1000
ACAD_MTEXT_DEFINED_HEIGHT_BEGIN
1070
    46
1040
1.168563934665934
1000
ACAD_MTEXT_DEFINED_HEIGHT_END
  0
MTEXT
  5
2AB
330
1F
100
AcDbEntity
  8
STANDARD
100
AcDbMText
 10
-775.529374551627
 20
840.8402582182933
 30
0.0
 40
1.127800076479913
 41
4.45684849500496
 71
     7
 72
     1
  1
\fArial;GND
1001
ACAD
1000
MTEXTBEGIN
1070
    73
1070
     2
1070
    44
1040
0.9638554216867471
1000
MTEXTEND
1000
ACAD_MTEXT_DEFINED_HEIGHT_BEGIN
1070
    46
1040
1.168563934665934
1000
ACAD_MTEXT_DEFINED_HEIGHT_END
  0
MTEXT
  5
2AC
330
1F
100
AcDbEntity
  8
STANDARD
100
AcDbMText
 10
-761.4661348945205
 20
840.833464241929
 30
0.0
 40
1.127800076479913
 41
3.892948456765002
 71
     7
 72
     1
  1
\fArial;+5V
1001
ACAD
1000
MTEXTBEGIN
1070
    73
1070
     2
1070
    44
1040
0.9638554216867471
1000
MTEXTEND
1000
ACAD_MTEXT_DEFINED_HEIGHT_BEGIN
1070
    46
1040
1.148182005572924
1000
ACAD_MTEXT_DEFINED_HEIGHT_END
  0
MTEXT
  5
2AD
330
1F
100
AcDbEntity
  8
STANDARD
100
AcDbMText
 10
-743.9661348945205
 20
840.833464241929
 30
0.0
 40
1.127800076479913
 41
4.45684849500496
 71
     7
 72
     1
  1
\fArial;GND
1001
ACAD
1000
MTEXTBEGIN
1070
    73
1070
     2
1070
    44
1040
0.9638554216867471
1000
MTEXTEND
1000
ACAD_MTEXT_DEFINED_HEIGHT_BEGIN
1070
    46
1040
1.168563934665934
1000
ACAD_MTEXT_DEFINED_HEIGHT_END
  0
MTEXT
  5
2AE
330
1F
100
AcDbEntity
  8
STANDARD
100
AcDbMText
 10
-694.9661348945205
 20
840.833464241929
 30
0.0
 40
1.127800076479913
 41
4.45684849500496
 71
     7
 72
     1
  1
\fArial;GND
1001
ACAD
1000
MTEXTBEGIN
1070
    73
1070
     2
1070
    44
1040
0.9638554216867471
1000
MTEXTEND
1000
ACAD_MTEXT_DEFINED_HEIGHT_BEGIN
1070
    46
1040
1.168563934665934
1000
ACAD_MTEXT_DEFINED_HEIGHT_END
  0
MTEXT
  5
2AF
330
1F
100
AcDbEntity
  8
STANDARD
100
AcDbMText
 10
-712.4661348945205
 20
840.833464241929
 30
0.0
 40
1.127800076479913
 41
3.892948456765002
 71
     7
 72
     1
  1
\fArial;+5V
1001
ACAD
1000
MTEXTBEGIN
1070
    73
1070
     2
1070
    44
1040
0.9638554216867471
1000
MTEXTEND
1000
ACAD_MTEXT_DEFINED_HEIGHT_BEGIN
1070
    46
1040
1.148182005572924
1000
ACAD_MTEXT_DEFINED_HEIGHT_END
  0
POLYLINE
  5
2B0
330
1F
100
AcDbEntity
  8
STANDARD
100
AcDb2dPolyline
 66
     1
 10
0.0
 20
0.0
 30
0.0
 70
     1
  0
VERTEX
  5
2B1
330
2B0
100
AcDbEntity
  8
STANDARD
100
AcDbVertex
100
AcDb2dVertex
 10
-712.4661348945205
 20
839.5951718032024
 30
0.0
  0
VERTEX
  5
2B2
330
2B0
100
AcDbEntity
  8
STANDARD
100
AcDbVertex
100
AcDb2dVertex
 10
-691.4661348945205
 20
839.5951718032024
 30
0.0
  0
VERTEX
  5
2B3
330
2B0
100
AcDbEntity
  8
STANDARD
100
AcDbVertex
100
AcDb2dVertex
 10
-691.4661348945205
 20
842.5951718032024
 30
0.0
  0
VERTEX
  5
2B4
330
2B0
100
AcDbEntity
  8
STANDARD
100
AcDbVertex
100
AcDb2dVertex
 10
-712.4661348945205
 20
842.5951718032024
 30
0.0
  0
SEQEND
  5
2B5
330
2B0
100
AcDbEntity
  8
STANDARD
  0
LINE
  5
2B6
330
1F
100
AcDbEntity
  8
STANDARD
100
AcDbLine
 10
-712.4661348945205
 20
842.5951718032024
 30
0.0
 11
-712.4661348945205
 21
839.5951718032024
 31
0.0
  0
LINE
  5
2B7
330
1F
100
AcDbEntity
  8
STANDARD
100
AcDbLine
 10
-708.9661348945205
 20
842.5951718032024
 30
0.0
 11
-708.9661348945205
 21
839.5951718032024
 31
0.0
  0
LINE
  5
2B8
330
1F
100
AcDbEntity
  8
STANDARD
100
AcDbLine
 10
-705.4661348945205
 20
842.5951718032024
 30
0.0
 11
-705.4661348945205
 21
839.5951718032024
 31
0.0
  0
LINE
  5
2B9
330
1F
100
AcDbEntity
  8
STANDARD
100
AcDbLine
 10
-701.9661348945205
 20
842.5951718032024
 30
0.0
 11
-701.9661348945205
 21
839.5951718032024
 31
0.0
  0
LINE
  5
2BA
330
1F
100
AcDbEntity
  8
STANDARD
100
AcDbLine
 10
-698.4661348945205
 20
842.5951718032024
 30
0.0
 11
-698.4661348945205
 21
839.5951718032024
 31
0.0
  0
LINE
  5
2BB
330
1F
100
AcDbEntity
  8
STANDARD
100
AcDbLine
 10
-694.9661348945205
 20
842.5951718032024
 30
0.0
 11
-694.9661348945205
 21
839.5951718032024
 31
0.0
  0
LINE
  5
2BC
330
1F
100
AcDbEntity
  8
STANDARD
100
AcDbLine
 10
-715.9661348945205
 20
842.5951718032024
 30
0.0
 11
-715.9661348945205
 21
839.5951718032024
 31
0.0
  0
LINE
  5
2BD
330
1F
100
AcDbEntity
  8
STANDARD
100
AcDbLine
 10
-719.4661348945205
 20
842.5951718032024
 30
0.0
 11
-719.4661348945205
 21
839.5951718032024
 31
0.0
  0
LINE
  5
2BE
330
1F
100
AcDbEntity
  8
STANDARD
100
AcDbLine
 10
-722.9661348945205
 20
842.5951718032024
 30
0.0
 11
-722.9661348945205
 21
839.5951718032024
 31
0.0
  0
LINE
  5
2BF
330
1F
100
AcDbEntity
  8
STANDARD
100
AcDbLine
 10
-726.4661348945205
 20
842.5951718032024
 30
0.0
 11
-726.4661348945205
 21
839.5951718032024
 31
0.0
  0
LINE
  5
2C0
330
1F
100
AcDbEntity
  8
STANDARD
100
AcDbLine
 10
-729.9661348945205
 20
842.5951718032024
 30
0.0
 11
-729.9661348945205
 21
839.5951718032024
 31
0.0
  0
LINE
  5
2C1
330
1F
100
AcDbEntity
  8
STANDARD
100
AcDbLine
 10
-733.4661348945205
 20
842.5951718032024
 30
0.0
 11
-733.4661348945205
 21
839.5951718032024
 31
0.0
  0
LINE
  5
2C2
330
1F
100
AcDbEntity
  8
STANDARD
100
AcDbLine
 10
-736.9661348945205
 20
842.5951718032024
 30
0.0
 11
-736.9661348945205
 21
839.5951718032024
 31
0.0
  0
POLYLINE
  5
2C3
330
1F
100
AcDbEntity
  8
STANDARD
100
AcDb2dPolyline
 66
     1
 10
0.0
 20
0.0
 30
0.0
 70
     1
  0
VERTEX
  5
2C4
330
2C3
100
AcDbEntity
  8
STANDARD
100
AcDbVertex
100
AcDb2dVertex
 10
-740.4661348945205
 20
839.5951718032024
 30
0.0
  0
VERTEX
  5
2C5
330
2C3
100
AcDbEntity
  8
STANDARD
100
AcDbVertex
100
AcDb2dVertex
 10
-712.4661348945205
 20
839.5951718032024
 30
0.0
  0
VERTEX
  5
2C6
330
2C3
100
AcDbEntity
  8
STANDARD
100
AcDbVertex
100
AcDb2dVertex
 10
-712.4661348945205
 20
842.5951718032024
 30
0.0
  0
VERTEX
  5
2C7
330
2C3
100
AcDbEntity
  8
STANDARD
100
AcDbVertex
100
AcDb2dVertex
 10
-740.4661348945205
 20
842.5951718032024
 30
0.0
  0
SEQEND
  5
2C8
330
2C3
100
AcDbEntity
  8
STANDARD
  0
LINE
  5
2C9
330
1F
100
AcDbEntity
  8
STANDARD
100
AcDbLine
 10
-743.9661348945205
 20
842.5951718032024
 30
0.0
 11
-743.9661348945205
 21
839.5951718032024
 31
0.0
  0
LINE
  5
2CA
330
1F
100
AcDbEntity
  8
STANDARD
100
AcDbLine
 10
-747.4661348945205
 20
842.5951718032024
 30
0.0
 11
-747.4661348945205
 21
839.5951718032024
 31
0.0
  0
LINE
  5
2CB
330
1F
100
AcDbEntity
  8
STANDARD
100
AcDbLine
 10
-750.9661348945205
 20
842.5951718032024
 30
0.0
 11
-750.9661348945205
 21
839.5951718032024
 31
0.0
  0
LINE
  5
2CC
330
1F
100
AcDbEntity
  8
STANDARD
100
AcDbLine
 10
-754.4661348945205
 20
842.5951718032024
 30
0.0
 11
-754.4661348945205
 21
839.5951718032024
 31
0.0
  0
LINE
  5
2CD
330
1F
100
AcDbEntity
  8
STANDARD
100
AcDbLine
 10
-757.9661348945205
 20
842.5951718032024
 30
0.0
 11
-757.9661348945205
 21
839.5951718032024
 31
0.0
  0
LINE
  5
2CE
330
1F
100
AcDbEntity
  8
STANDARD
100
AcDbLine
 10
-761.4661348945205
 20
842.5951718032024
 30
0.0
 11
-761.4661348945205
 21
839.5951718032024
 31
0.0
  0
POLYLINE
  5
2CF
330
1F
100
AcDbEntity
  8
STANDARD
100
AcDb2dPolyline
 66
     1
 10
0.0
 20
0.0
 30
0.0
 70
     1
  0
VERTEX
  5
2D0
330
2CF
100
AcDbEntity
  8
STANDARD
100
AcDbVertex
100
AcDb2dVertex
 10
-761.4661348945205
 20
839.5951718032024
 30
0.0
  0
VERTEX
  5
2D1
330
2CF
100
AcDbEntity
  8
STANDARD
100
AcDbVertex
100
AcDb2dVertex
 10
-740.4661348945205
 20
839.5951718032024
 30
0.0
  0
VERTEX
  5
2D2
330
2CF
100
AcDbEntity
  8
STANDARD
100
AcDbVertex
100
AcDb2dVertex
 10
-740.4661348945205
 20
842.5951718032024
 30
0.0
  0
VERTEX
  5
2D3
330
2CF
100
AcDbEntity
  8
STANDARD
100
AcDbVertex
100
AcDb2dVertex
 10
-761.4661348945205
 20
842.5951718032024
 30
0.0
  0
SEQEND
  5
2D4
330
2CF
100
AcDbEntity
  8
STANDARD
  0
LINE
  5
2D5
330
1F
100
AcDbEntity
  8
STANDARD
100
AcDbLine
 10
-775.4661348945205
 20
842.5951718032024
 30
0.0
 11
-775.4661348945205
 21
839.5951718032024
 31
0.0
  0
LINE
  5
2D6
330
1F
100
AcDbEntity
  8
STANDARD
100
AcDbLine
 10
-771.9661348945205
 20
842.5951718032024
 30
0.0
 11
-771.9661348945205
 21
839.5951718032024
 31
0.0
  0
LINE
  5
2D7
330
1F
100
AcDbEntity
  8
STANDARD
100
AcDbLine
 10
-768.4661348945205
 20
842.5951718032024
 30
0.0
 11
-768.4661348945205
 21
839.5951718032024
 31
0.0
  0
LINE
  5
2D8
330
1F
100
AcDbEntity
  8
STANDARD
100
AcDbLine
 10
-764.9661348945205
 20
842.5951718032024
 30
0.0
 11
-764.9661348945205
 21
839.5951718032024
 31
0.0
  0
POLYLINE
  5
2D9
330
1F
100
AcDbEntity
  8
STANDARD
100
AcDb2dPolyline
 66
     1
 10
0.0
 20
0.0
 30
0.0
 70
     1
  0
VERTEX
  5
2DA
330
2D9
100
AcDbEntity
  8
STANDARD
100
AcDbVertex
100
AcDb2dVertex
 10
-775.4661348945205
 20
839.5951718032024
 30
0.0
  0
VERTEX
  5
2DB
330
2D9
100
AcDbEntity
  8
STANDARD
100
AcDbVertex
100
AcDb2dVertex
 10
-761.4661348945205
 20
839.5951718032024
 30
0.0
  0
VERTEX
  5
2DC
330
2D9
100
AcDbEntity
  8
STANDARD
100
AcDbVertex
100
AcDb2dVertex
 10
-761.4661348945205
 20
842.5951718032024
 30
0.0
  0
VERTEX
  5
2DD
330
2D9
100
AcDbEntity
  8
STANDARD
100
AcDbVertex
100
AcDb2dVertex
 10
-775.4661348945205
 20
842.5951718032024
 30
0.0
  0
SEQEND
  5
2DE
330
2D9
100
AcDbEntity
  8
STANDARD
  0
LINE
  5
2DF
330
1F
100
AcDbEntity
  8
AUFSPANNFLAECHE_ANLAGE
100
AcDbLine
 10
-712.4661348945205
 20
842.5951718032024
 30
0.0
 11
-712.4661348945205
 21
844.2148386133385
 31
0.0
  0
LINE
  5
2E0
330
1F
100
AcDbEntity
  8
AUFSPANNFLAECHE_ANLAGE
100
AcDbLine
 10
-740.4661348945205
 20
842.5951718032024
 30
0.0
 11
-740.4661348945205
 21
844.2148386133385
 31
0.0
  0
LINE
  5
2E1
330
1F
100
AcDbEntity
  8
AUFSPANNFLAECHE_ANLAGE
100
AcDbLine
 10
-761.4661348945205
 20
842.5951718032024
 30
0.0
 11
-761.4661348945205
 21
844.2148386133385
 31
0.0
  0
POLYLINE
  5
2E2
330
1F
100
AcDbEntity
  8
STANDARD
100
AcDb2dPolyline
 66
     1
 10
0.0
 20
0.0
 30
0.0
 70
     1
  0
VERTEX
  5
2E3
330
2E2
100
AcDbEntity
  8
STANDARD
100
AcDbVertex
100
AcDb2dVertex
 10
-775.4661348945206
 20
848.8018135172761
 30
0.0
  0
VERTEX
  5
2E4
330
2E2
100
AcDbEntity
  8
STANDARD
100
AcDbVertex
100
AcDb2dVertex
 10
-747.4661348945206
 20
848.8018135172761
 30
0.0
  0
VERTEX
  5
2E5
330
2E2
100
AcDbEntity
  8
STANDARD
100
AcDbVertex
100
AcDb2dVertex
 10
-747.4661348945206
 20
851.8018135172761
 30
0.0
  0
VERTEX
  5
2E6
330
2E2
100
AcDbEntity
  8
STANDARD
100
AcDbVertex
100
AcDb2dVertex
 10
-775.4661348945206
 20
851.8018135172761
 30
0.0
  0
SEQEND
  5
2E7
330
2E2
100
AcDbEntity
  8
STANDARD
  0
LINE
  5
2E8
330
1F
100
AcDbEntity
  8
STANDARD
100
AcDbLine
 10
-771.9661348945206
 20
851.8018135172761
 30
0.0
 11
-771.9661348945206
 21
848.8018135172761
 31
0.0
  0
LINE
  5
2E9
330
1F
100
AcDbEntity
  8
STANDARD
100
AcDbLine
 10
-768.4661348945206
 20
851.8018135172761
 30
0.0
 11
-768.4661348945206
 21
848.8018135172761
 31
0.0
  0
LINE
  5
2EA
330
1F
100
AcDbEntity
  8
STANDARD
100
AcDbLine
 10
-764.9661348945206
 20
851.8018135172761
 30
0.0
 11
-764.9661348945206
 21
848.8018135172761
 31
0.0
  0
LINE
  5
2EB
330
1F
100
AcDbEntity
  8
STANDARD
100
AcDbLine
 10
-761.4661348945206
 20
851.8018135172761
 30
0.0
 11
-761.4661348945206
 21
848.8018135172761
 31
0.0
  0
LINE
  5
2EC
330
1F
100
AcDbEntity
  8
STANDARD
100
AcDbLine
 10
-757.9661348945206
 20
851.8018135172761
 30
0.0
 11
-757.9661348945206
 21
848.8018135172761
 31
0.0
  0
LINE
  5
2ED
330
1F
100
AcDbEntity
  8
STANDARD
100
AcDbLine
 10
-754.4661348945206
 20
851.8018135172761
 30
0.0
 11
-754.4661348945206
 21
848.8018135172761
 31
0.0
  0
LINE
  5
2EE
330
1F
100
AcDbEntity
  8
STANDARD
100
AcDbLine
 10
-750.9661348945206
 20
851.8018135172761
 30
0.0
 11
-750.9661348945206
 21
848.8018135172761
 31
0.0
  0
LINE
  5
2EF
330
1F
100
AcDbEntity
  8
STANDARD
100
AcDbLine
 10
-722.9661348945206
 20
851.8018135172761
 30
0.0
 11
-722.9661348945206
 21
848.8018135172761
 31
0.0
  0
LINE
  5
2F0
330
1F
100
AcDbEntity
  8
STANDARD
100
AcDbLine
 10
-726.4661348945206
 20
851.8018135172761
 30
0.0
 11
-726.4661348945206
 21
848.8018135172761
 31
0.0
  0
LINE
  5
2F1
330
1F
100
AcDbEntity
  8
STANDARD
100
AcDbLine
 10
-729.9661348945206
 20
851.8018135172761
 30
0.0
 11
-729.9661348945206
 21
848.8018135172761
 31
0.0
  0
LINE
  5
2F2
330
1F
100
AcDbEntity
  8
STANDARD
100
AcDbLine
 10
-733.4661348945206
 20
851.8018135172761
 30
0.0
 11
-733.4661348945206
 21
848.8018135172761
 31
0.0
  0
LINE
  5
2F3
330
1F
100
AcDbEntity
  8
STANDARD
100
AcDbLine
 10
-736.9661348945206
 20
851.8018135172761
 30
0.0
 11
-736.9661348945206
 21
848.8018135172761
 31
0.0
  0
LINE
  5
2F4
330
1F
100
AcDbEntity
  8
STANDARD
100
AcDbLine
 10
-740.4661348945206
 20
851.8018135172761
 30
0.0
 11
-740.4661348945206
 21
848.8018135172761
 31
0.0
  0
LINE
  5
2F5
330
1F
100
AcDbEntity
  8
STANDARD
100
AcDbLine
 10
-743.9661348945206
 20
851.8018135172761
 30
0.0
 11
-743.9661348945206
 21
848.8018135172761
 31
0.0
  0
POLYLINE
  5
2F6
330
1F
100
AcDbEntity
  8
STANDARD
100
AcDb2dPolyline
 66
     1
 10
0.0
 20
0.0
 30
0.0
 70
     1
  0
VERTEX
  5
2F7
330
2F6
100
AcDbEntity
  8
STANDARD
100
AcDbVertex
100
AcDb2dVertex
 10
-747.4661348945206
 20
848.8018135172761
 30
0.0
  0
VERTEX
  5
2F8
330
2F6
100
AcDbEntity
  8
STANDARD
100
AcDbVertex
100
AcDb2dVertex
 10
-719.4661348945206
 20
848.8018135172761
 30
0.0
  0
VERTEX
  5
2F9
330
2F6
100
AcDbEntity
  8
STANDARD
100
AcDbVertex
100
AcDb2dVertex
 10
-719.4661348945206
 20
851.8018135172761
 30
0.0
  0
VERTEX
  5
2FA
330
2F6
100
AcDbEntity
  8
STANDARD
100
AcDbVertex
100
AcDb2dVertex
 10
-747.4661348945206
 20
851.8018135172761
 30
0.0
  0
SEQEND
  5
2FB
330
2F6
100
AcDbEntity
  8
STANDARD
  0
LINE
  5
2FC
330
1F
100
AcDbEntity
  8
STANDARD
100
AcDbLine
 10
-694.9661348945206
 20
851.8018135172761
 30
0.0
 11
-694.9661348945206
 21
848.8018135172761
 31
0.0
  0
LINE
  5
2FD
330
1F
100
AcDbEntity
  8
STANDARD
100
AcDbLine
 10
-698.4661348945206
 20
851.8018135172761
 30
0.0
 11
-698.4661348945206
 21
848.8018135172761
 31
0.0
  0
LINE
  5
2FE
330
1F
100
AcDbEntity
  8
STANDARD
100
AcDbLine
 10
-701.9661348945206
 20
851.8018135172761
 30
0.0
 11
-701.9661348945206
 21
848.8018135172761
 31
0.0
  0
LINE
  5
2FF
330
1F
100
AcDbEntity
  8
STANDARD
100
AcDbLine
 10
-705.4661348945206
 20
851.8018135172761
 30
0.0
 11
-705.4661348945206
 21
848.8018135172761
 31
0.0
  0
LINE
  5
300
330
1F
100
AcDbEntity
  8
STANDARD
100
AcDbLine
 10
-708.9661348945206
 20
851.8018135172761
 30
0.0
 11
-708.9661348945206
 21
848.8018135172761
 31
0.0
  0
LINE
  5
301
330
1F
100
AcDbEntity
  8
STANDARD
100
AcDbLine
 10
-712.4661348945206
 20
851.8018135172761
 30
0.0
 11
-712.4661348945206
 21
848.8018135172761
 31
0.0
  0
LINE
  5
302
330
1F
100
AcDbEntity
  8
STANDARD
100
AcDbLine
 10
-715.9661348945206
 20
851.8018135172761
 30
0.0
 11
-715.9661348945206
 21
848.8018135172761
 31
0.0
  0
POLYLINE
  5
303
330
1F
100
AcDbEntity
  8
STANDARD
100
AcDb2dPolyline
 66
     1
 10
0.0
 20
0.0
 30
0.0
 70
     1
  0
VERTEX
  5
304
330
303
100
AcDbEntity
  8
STANDARD
100
AcDbVertex
100
AcDb2dVertex
 10
-719.4661348945206
 20
848.8018135172761
 30
0.0
  0
VERTEX
  5
305
330
303
100
AcDbEntity
  8
STANDARD
100
AcDbVertex
100
AcDb2dVertex
 10
-691.4661348945206
 20
848.8018135172761
 30
0.0
  0
VERTEX
  5
306
330
303
100
AcDbEntity
  8
STANDARD
100
AcDbVertex
100
AcDb2dVertex
 10
-691.4661348945206
 20
851.8018135172761
 30
0.0
  0
VERTEX
  5
307
330
303
100
AcDbEntity
  8
STANDARD
100
AcDbVertex
100
AcDb2dVertex
 10
-719.4661348945206
 20
851.8018135172761
 30
0.0
  0
SEQEND
  5
308
330
303
100
AcDbEntity
  8
STANDARD
  0
LINE
  5
309
330
1F
100
AcDbEntity
  8
AUFSPANNFLAECHE_ANLAGE
100
AcDbLine
 10
-747.4661348945206
 20
851.8018135172761
 30
0.0
 11
-747.4661348945206
 21
853.7605767115436
 31
0.0
  0
LINE
  5
30A
330
1F
100
AcDbEntity
  8
AUFSPANNFLAECHE_ANLAGE
100
AcDbLine
 10
-719.4661348945206
 20
851.8018135172761
 30
0.0
 11
-719.4661348945206
 21
853.4214803274122
 31
0.0
  0
LINE
  5
30B
330
1F
100
AcDbEntity
  8
AUFSPANNFLAECHE_ANLAGE
100
AcDbLine
 10
-747.4661348945206
 20
856.2597376029596
 30
0.0
 11
-747.4661348945206
 21
861.5694512652142
 31
0.0
  0
LINE
  5
30C
330
1F
100
AcDbEntity
  8
AUFSPANNFLAECHE_ANLAGE
100
AcDbLine
 10
-719.4661348945206
 20
856.2597376029596
 30
0.0
 11
-719.4661348945206
 21
861.2303548810827
 31
0.0
  0
POLYLINE
  5
30D
330
1F
100
AcDbEntity
  8
STANDARD
100
AcDb2dPolyline
 66
     1
 10
0.0
 20
0.0
 30
0.0
 70
     1
  0
VERTEX
  5
30E
330
30D
100
AcDbEntity
  8
STANDARD
100
AcDbVertex
100
AcDb2dVertex
 10
-719.4661348945206
 20
853.2597376029596
 30
0.0
  0
VERTEX
  5
30F
330
30D
100
AcDbEntity
  8
STANDARD
100
AcDbVertex
100
AcDb2dVertex
 10
-691.4661348945206
 20
853.2597376029596
 30
0.0
  0
VERTEX
  5
310
330
30D
100
AcDbEntity
  8
STANDARD
100
AcDbVertex
100
AcDb2dVertex
 10
-691.4661348945206
 20
856.2597376029596
 30
0.0
  0
VERTEX
  5
311
330
30D
100
AcDbEntity
  8
STANDARD
100
AcDbVertex
100
AcDb2dVertex
 10
-719.4661348945206
 20
856.2597376029596
 30
0.0
  0
SEQEND
  5
312
330
30D
100
AcDbEntity
  8
STANDARD
  0
LINE
  5
313
330
1F
100
AcDbEntity
  8
STANDARD
100
AcDbLine
 10
-715.9661348945206
 20
856.2597376029596
 30
0.0
 11
-715.9661348945206
 21
853.2597376029596
 31
0.0
  0
LINE
  5
314
330
1F
100
AcDbEntity
  8
STANDARD
100
AcDbLine
 10
-712.4661348945206
 20
856.2597376029596
 30
0.0
 11
-712.4661348945206
 21
853.2597376029596
 31
0.0
  0
LINE
  5
315
330
1F
100
AcDbEntity
  8
STANDARD
100
AcDbLine
 10
-708.9661348945206
 20
856.2597376029596
 30
0.0
 11
-708.9661348945206
 21
853.2597376029596
 31
0.0
  0
LINE
  5
316
330
1F
100
AcDbEntity
  8
STANDARD
100
AcDbLine
 10
-705.4661348945206
 20
856.2597376029596
 30
0.0
 11
-705.4661348945206
 21
853.2597376029596
 31
0.0
  0
LINE
  5
317
330
1F
100
AcDbEntity
  8
STANDARD
100
AcDbLine
 10
-701.9661348945206
 20
856.2597376029596
 30
0.0
 11
-701.9661348945206
 21
853.2597376029596
 31
0.0
  0
LINE
  5
318
330
1F
100
AcDbEntity
  8
STANDARD
100
AcDbLine
 10
-698.4661348945206
 20
856.2597376029596
 30
0.0
 11
-698.4661348945206
 21
853.2597376029596
 31
0.0
  0
LINE
  5
319
330
1F
100
AcDbEntity
  8
STANDARD
100
AcDbLine
 10
-694.9661348945206
 20
856.2597376029596
 30
0.0
 11
-694.9661348945206
 21
853.2597376029596
 31
0.0
  0
POLYLINE
  5
31A
330
1F
100
AcDbEntity
  8
STANDARD
100
AcDb2dPolyline
 66
     1
 10
0.0
 20
0.0
 30
0.0
 70
     1
  0
VERTEX
  5
31B
330
31A
100
AcDbEntity
  8
STANDARD
100
AcDbVertex
100
AcDb2dVertex
 10
-747.4661348945206
 20
853.2597376029596
 30
0.0
  0
VERTEX
  5
31C
330
31A
100
AcDbEntity
  8
STANDARD
100
AcDbVertex
100
AcDb2dVertex
 10
-719.4661348945206
 20
853.2597376029596
 30
0.0
  0
VERTEX
  5
31D
330
31A
100
AcDbEntity
  8
STANDARD
100
AcDbVertex
100
AcDb2dVertex
 10
-719.4661348945206
 20
856.2597376029596
 30
0.0
  0
VERTEX
  5
31E
330
31A
100
AcDbEntity
  8
STANDARD
100
AcDbVertex
100
AcDb2dVertex
 10
-747.4661348945206
 20
856.2597376029596
 30
0.0
  0
SEQEND
  5
31F
330
31A
100
AcDbEntity
  8
STANDARD
  0
LINE
  5
320
330
1F
100
AcDbEntity
  8
STANDARD
100
AcDbLine
 10
-743.9661348945206
 20
856.2597376029596
 30
0.0
 11
-743.9661348945206
 21
853.2597376029596
 31
0.0
  0
LINE
  5
321
330
1F
100
AcDbEntity
  8
STANDARD
100
AcDbLine
 10
-740.4661348945206
 20
856.2597376029596
 30
0.0
 11
-740.4661348945206
 21
853.2597376029596
 31
0.0
  0
LINE
  5
322
330
1F
100
AcDbEntity
  8
STANDARD
100
AcDbLine
 10
-736.9661348945206
 20
856.2597376029596
 30
0.0
 11
-736.9661348945206
 21
853.2597376029596
 31
0.0
  0
LINE
  5
323
330
1F
100
AcDbEntity
  8
STANDARD
100
AcDbLine
 10
-733.4661348945206
 20
856.2597376029596
 30
0.0
 11
-733.4661348945206
 21
853.2597376029596
 31
0.0
  0
LINE
  5
324
330
1F
100
AcDbEntity
  8
STANDARD
100
AcDbLine
 10
-729.9661348945206
 20
856.2597376029596
 30
0.0
 11
-729.9661348945206
 21
853.2597376029596
 31
0.0
  0
LINE
  5
325
330
1F
100
AcDbEntity
  8
STANDARD
100
AcDbLine
 10
-726.4661348945206
 20
856.2597376029596
 30
0.0
 11
-726.4661348945206
 21
853.2597376029596
 31
0.0
  0
LINE
  5
326
330
1F
100
AcDbEntity
  8
STANDARD
100
AcDbLine
 10
-722.9661348945206
 20
856.2597376029596
 30
0.0
 11
-722.9661348945206
 21
853.2597376029596
 31
0.0
  0
LINE
  5
327
330
1F
100
AcDbEntity
  8
STANDARD
100
AcDbLine
 10
-750.9661348945206
 20
856.2597376029596
 30
0.0
 11
-750.9661348945206
 21
853.2597376029596
 31
0.0
  0
LINE
  5
328
330
1F
100
AcDbEntity
  8
STANDARD
100
AcDbLine
 10
-754.4661348945206
 20
856.2597376029596
 30
0.0
 11
-754.4661348945206
 21
853.2597376029596
 31
0.0
  0
LINE
  5
329
330
1F
100
AcDbEntity
  8
STANDARD
100
AcDbLine
 10
-757.9661348945206
 20
856.2597376029596
 30
0.0
 11
-757.9661348945206
 21
853.2597376029596
 31
0.0
  0
LINE
  5
32A
330
1F
100
AcDbEntity
  8
STANDARD
100
AcDbLine
 10
-761.4661348945206
 20
856.2597376029596
 30
0.0
 11
-761.4661348945206
 21
853.2597376029596
 31
0.0
  0
LINE
  5
32B
330
1F
100
AcDbEntity
  8
STANDARD
100
AcDbLine
 10
-764.9661348945206
 20
856.2597376029596
 30
0.0
 11
-764.9661348945206
 21
853.2597376029596
 31
0.0
  0
LINE
  5
32C
330
1F
100
AcDbEntity
  8
STANDARD
100
AcDbLine
 10
-768.4661348945206
 20
856.2597376029596
 30
0.0
 11
-768.4661348945206
 21
853.2597376029596
 31
0.0
  0
LINE
  5
32D
330
1F
100
AcDbEntity
  8
STANDARD
100
AcDbLine
 10
-771.9661348945206
 20
856.2597376029596
 30
0.0
 11
-771.9661348945206
 21
853.2597376029596
 31
0.0
  0
POLYLINE
  5
32E
330
1F
100
AcDbEntity
  8
STANDARD
100
AcDb2dPolyline
 66
     1
 10
0.0
 20
0.0
 30
0.0
 70
     1
  0
VERTEX
  5
32F
330
32E
100
AcDbEntity
  8
STANDARD
100
AcDbVertex
100
AcDb2dVertex
 10
-775.4661348945206
 20
853.2597376029596
 30
0.0
  0
VERTEX
  5
330
330
32E
100
AcDbEntity
  8
STANDARD
100
AcDbVertex
100
AcDb2dVertex
 10
-747.4661348945206
 20
853.2597376029596
 30
0.0
  0
VERTEX
  5
331
330
32E
100
AcDbEntity
  8
STANDARD
100
AcDbVertex
100
AcDb2dVertex
 10
-747.4661348945206
 20
856.2597376029596
 30
0.0
  0
VERTEX
  5
332
330
32E
100
AcDbEntity
  8
STANDARD
100
AcDbVertex
100
AcDb2dVertex
 10
-775.4661348945206
 20
856.2597376029596
 30
0.0
  0
SEQEND
  5
333
330
32E
100
AcDbEntity
  8
STANDARD
  0
LINE
  5
334
330
1F
100
AcDbEntity
  8
STANDARD
100
AcDbLine
 10
-694.9661348945205
 20
847.4304533183774
 30
0.0
 11
-694.9661348945205
 21
844.4304533183774
 31
0.0
  0
LINE
  5
335
330
1F
100
AcDbEntity
  8
STANDARD
100
AcDbLine
 10
-698.4661348945205
 20
847.4304533183774
 30
0.0
 11
-698.4661348945205
 21
844.4304533183774
 31
0.0
  0
LINE
  5
336
330
1F
100
AcDbEntity
  8
STANDARD
100
AcDbLine
 10
-701.9661348945205
 20
847.4304533183774
 30
0.0
 11
-701.9661348945205
 21
844.4304533183774
 31
0.0
  0
LINE
  5
337
330
1F
100
AcDbEntity
  8
STANDARD
100
AcDbLine
 10
-705.4661348945205
 20
847.4304533183774
 30
0.0
 11
-705.4661348945205
 21
844.4304533183774
 31
0.0
  0
LINE
  5
338
330
1F
100
AcDbEntity
  8
STANDARD
100
AcDbLine
 10
-708.9661348945205
 20
847.4304533183774
 30
0.0
 11
-708.9661348945205
 21
844.4304533183774
 31
0.0
  0
LINE
  5
339
330
1F
100
AcDbEntity
  8
STANDARD
100
AcDbLine
 10
-712.4661348945205
 20
847.4304533183774
 30
0.0
 11
-712.4661348945205
 21
844.4304533183774
 31
0.0
  0
LINE
  5
33A
330
1F
100
AcDbEntity
  8
STANDARD
100
AcDbLine
 10
-715.9661348945205
 20
847.4304533183774
 30
0.0
 11
-715.9661348945205
 21
844.4304533183774
 31
0.0
  0
POLYLINE
  5
33B
330
1F
100
AcDbEntity
  8
STANDARD
100
AcDb2dPolyline
 66
     1
 10
0.0
 20
0.0
 30
0.0
 70
     1
  0
VERTEX
  5
33C
330
33B
100
AcDbEntity
  8
STANDARD
100
AcDbVertex
100
AcDb2dVertex
 10
-719.4661348945205
 20
844.4304533183774
 30
0.0
  0
VERTEX
  5
33D
330
33B
100
AcDbEntity
  8
STANDARD
100
AcDbVertex
100
AcDb2dVertex
 10
-691.4661348945205
 20
844.4304533183774
 30
0.0
  0
VERTEX
  5
33E
330
33B
100
AcDbEntity
  8
STANDARD
100
AcDbVertex
100
AcDb2dVertex
 10
-691.4661348945205
 20
847.4304533183774
 30
0.0
  0
VERTEX
  5
33F
330
33B
100
AcDbEntity
  8
STANDARD
100
AcDbVertex
100
AcDb2dVertex
 10
-719.4661348945205
 20
847.4304533183774
 30
0.0
  0
SEQEND
  5
340
330
33B
100
AcDbEntity
  8
STANDARD
  0
POLYLINE
  5
341
330
1F
100
AcDbEntity
  8
STANDARD
100
AcDb2dPolyline
 66
     1
 10
0.0
 20
0.0
 30
0.0
 70
     1
  0
VERTEX
  5
342
330
341
100
AcDbEntity
  8
STANDARD
100
AcDbVertex
100
AcDb2dVertex
 10
-775.4661348945206
 20
844.4304533183774
 30
0.0
  0
VERTEX
  5
343
330
341
100
AcDbEntity
  8
STANDARD
100
AcDbVertex
100
AcDb2dVertex
 10
-747.4661348945206
 20
844.4304533183774
 30
0.0
  0
VERTEX
  5
344
330
341
100
AcDbEntity
  8
STANDARD
100
AcDbVertex
100
AcDb2dVertex
 10
-747.4661348945206
 20
847.4304533183774
 30
0.0
  0
VERTEX
  5
345
330
341
100
AcDbEntity
  8
STANDARD
100
AcDbVertex
100
AcDb2dVertex
 10
-775.4661348945206
 20
847.4304533183774
 30
0.0
  0
SEQEND
  5
346
330
341
100
AcDbEntity
  8
STANDARD
  0
LINE
  5
347
330
1F
100
AcDbEntity
  8
STANDARD
100
AcDbLine
 10
-771.9661348945206
 20
847.4304533183774
 30
0.0
 11
-771.9661348945206
 21
844.4304533183774
 31
0.0
  0
LINE
  5
348
330
1F
100
AcDbEntity
  8
STANDARD
100
AcDbLine
 10
-768.4661348945206
 20
847.4304533183774
 30
0.0
 11
-768.4661348945206
 21
844.4304533183774
 31
0.0
  0
LINE
  5
349
330
1F
100
AcDbEntity
  8
STANDARD
100
AcDbLine
 10
-764.9661348945206
 20
847.4304533183774
 30
0.0
 11
-764.9661348945206
 21
844.4304533183774
 31
0.0
  0
LINE
  5
34A
330
1F
100
AcDbEntity
  8
STANDARD
100
AcDbLine
 10
-761.4661348945206
 20
847.4304533183774
 30
0.0
 11
-761.4661348945206
 21
844.4304533183774
 31
0.0
  0
LINE
  5
34B
330
1F
100
AcDbEntity
  8
STANDARD
100
AcDbLine
 10
-757.9661348945206
 20
847.4304533183774
 30
0.0
 11
-757.9661348945206
 21
844.4304533183774
 31
0.0
  0
LINE
  5
34C
330
1F
100
AcDbEntity
  8
STANDARD
100
AcDbLine
 10
-754.4661348945206
 20
847.4304533183774
 30
0.0
 11
-754.4661348945206
 21
844.4304533183774
 31
0.0
  0
LINE
  5
34D
330
1F
100
AcDbEntity
  8
STANDARD
100
AcDbLine
 10
-750.9661348945206
 20
847.4304533183774
 30
0.0
 11
-750.9661348945206
 21
844.4304533183774
 31
0.0
  0
MTEXT
  5
34E
330
1F
100
AcDbEntity
  8
STANDARD
100
AcDbMText
 10
-712.4661348945205
 20
845.668745757104
 30
0.0
 40
1.127800076479913
 41
2.975761647579531
 71
     7
 72
     1
  1
\fArial;spi
1001
ACAD
1000
MTEXTBEGIN
1070
    73
1070
     2
1070
    44
1040
0.9638554216867471
1000
MTEXTEND
1000
ACAD_MTEXT_DEFINED_HEIGHT_BEGIN
1070
    46
1040
1.440322989239408
1000
ACAD_MTEXT_DEFINED_HEIGHT_END
  0
MTEXT
  5
34F
330
1F
100
AcDbEntity
  8
STANDARD
100
AcDbMText
 10
-701.9661348945205
 20
845.668745757104
 30
0.0
 40
1.127800076479913
 41
2.975761647579531
 71
     7
 72
     1
  1
\fArial;spi
1001
ACAD
1000
MTEXTBEGIN
1070
    73
1070
     2
1070
    44
1040
0.9638554216867471
1000
MTEXTEND
1000
ACAD_MTEXT_DEFINED_HEIGHT_BEGIN
1070
    46
1040
1.440322989239408
1000
ACAD_MTEXT_DEFINED_HEIGHT_END
  0
MTEXT
  5
350
330
1F
100
AcDbEntity
  8
STANDARD
100
AcDbMText
 10
-775.5293745516271
 20
845.6755397334683
 30
0.0
 40
1.127800076479913
 41
4.45684849500496
 71
     7
 72
     1
  1
\fArial;GND
1001
ACAD
1000
MTEXTBEGIN
1070
    73
1070
     2
1070
    44
1040
0.9638554216867471
1000
MTEXTEND
1000
ACAD_MTEXT_DEFINED_HEIGHT_BEGIN
1070
    46
1040
1.168563934665934
1000
ACAD_MTEXT_DEFINED_HEIGHT_END
  0
MTEXT
  5
351
330
1F
100
AcDbEntity
  8
STANDARD
100
AcDbMText
 10
-765.0293745516271
 20
845.6755397334683
 30
0.0
 40
1.127800076479913
 41
4.762577431400117
 71
     7
 72
     1
  1
\fArial;+24V
1001
ACAD
1000
MTEXTBEGIN
1070
    73
1070
     2
1070
    44
1040
0.9638554216867471
1000
MTEXTEND
1000
ACAD_MTEXT_DEFINED_HEIGHT_BEGIN
1070
    46
1040
1.13459405284425
1000
ACAD_MTEXT_DEFINED_HEIGHT_END
  0
MTEXT
  5
352
330
1F
100
AcDbEntity
  8
STANDARD
100
AcDbMText
 10
-765.0293745516271
 20
844.5273577278955
 30
0.0
 40
1.127800076479913
 41
2.133308578401764
 71
     7
 72
     1
  1
\fArial;in
1001
ACAD
1000
MTEXTBEGIN
1070
    73
1070
     2
1070
    44
1040
0.9638554216867471
1000
MTEXTEND
1000
ACAD_MTEXT_DEFINED_HEIGHT_BEGIN
1070
    46
1040
1.127800076479913
1000
ACAD_MTEXT_DEFINED_HEIGHT_END
  0
MTEXT
  5
353
330
1F
100
AcDbEntity
  8
STANDARD
100
AcDbMText
 10
-750.4954198213186
 20
844.5273577278955
 30
0.0
 40
1.127800076479913
 41
3.240726725788667
 71
     7
 72
     1
  1
\fArial;out
1001
ACAD
1000
MTEXTBEGIN
1070
    73
1070
     2
1070
    44
1040
0.9638554216867471
1000
MTEXTEND
1000
ACAD_MTEXT_DEFINED_HEIGHT_BEGIN
1070
    46
1040
1.121006100115577
1000
ACAD_MTEXT_DEFINED_HEIGHT_END
  0
MTEXT
  5
354
330
1F
100
AcDbEntity
  8
STANDARD
100
AcDbMText
 10
-753.9954198213186
 20
844.5273577278955
 30
0.0
 40
1.127800076479913
 41
3.240726725788667
 71
     7
 72
     1
  1
\fArial;out
1001
ACAD
1000
MTEXTBEGIN
1070
    73
1070
     2
1070
    44
1040
0.9638554216867471
1000
MTEXTEND
1000
ACAD_MTEXT_DEFINED_HEIGHT_BEGIN
1070
    46
1040
1.121006100115577
1000
ACAD_MTEXT_DEFINED_HEIGHT_END
  0
MTEXT
  5
355
330
1F
100
AcDbEntity
  8
STANDARD
100
AcDbMText
 10
-757.4954198213186
 20
844.5273577278955
 30
0.0
 40
1.127800076479913
 41
3.240726725788667
 71
     7
 72
     1
  1
\fArial;out
1001
ACAD
1000
MTEXTBEGIN
1070
    73
1070
     2
1070
    44
1040
0.9638554216867471
1000
MTEXTEND
1000
ACAD_MTEXT_DEFINED_HEIGHT_BEGIN
1070
    46
1040
1.121006100115577
1000
ACAD_MTEXT_DEFINED_HEIGHT_END
  0
MTEXT
  5
356
330
1F
100
AcDbEntity
  8
STANDARD
100
AcDbMText
 10
-760.9954198213186
 20
844.5273577278955
 30
0.0
 40
1.127800076479913
 41
3.240726725788667
 71
     7
 72
     1
  1
\fArial;out
1001
ACAD
1000
MTEXTBEGIN
1070
    73
1070
     2
1070
    44
1040
0.9638554216867471
1000
MTEXTEND
1000
ACAD_MTEXT_DEFINED_HEIGHT_BEGIN
1070
    46
1040
1.121006100115577
1000
ACAD_MTEXT_DEFINED_HEIGHT_END
  0
MTEXT
  5
357
330
1F
100
AcDbEntity
  8
STANDARD
100
AcDbMText
 10
-760.9954198213186
 20
845.6755397334683
 30
0.0
 40
1.127800076479913
 41
2.975761647579531
 71
     7
 72
     1
  1
\fArial;V+
1001
ACAD
1000
MTEXTBEGIN
1070
    73
1070
     2
1070
    44
1040
0.9638554216867471
1000
MTEXTEND
1000
ACAD_MTEXT_DEFINED_HEIGHT_BEGIN
1070
    46
1040
1.127800076479913
1000
ACAD_MTEXT_DEFINED_HEIGHT_END
  0
MTEXT
  5
358
330
1F
100
AcDbEntity
  8
STANDARD
100
AcDbMText
 10
-750.4954198213186
 20
845.6755397334683
 30
0.0
 40
1.127800076479913
 41
2.975761647579531
 71
     7
 72
     1
  1
\fArial;V+
1001
ACAD
1000
MTEXTBEGIN
1070
    73
1070
     2
1070
    44
1040
0.9638554216867471
1000
MTEXTEND
1000
ACAD_MTEXT_DEFINED_HEIGHT_BEGIN
1070
    46
1040
1.127800076479913
1000
ACAD_MTEXT_DEFINED_HEIGHT_END
  0
MTEXT
  5
359
330
1F
100
AcDbEntity
  8
STANDARD
100
AcDbMText
 10
-753.9954198213186
 20
845.6755397334683
 30
0.0
 40
1.127800076479913
 41
2.975761647579531
 71
     7
 72
     1
  1
\fArial;V+
1001
ACAD
1000
MTEXTBEGIN
1070
    73
1070
     2
1070
    44
1040
0.9638554216867471
1000
MTEXTEND
1000
ACAD_MTEXT_DEFINED_HEIGHT_BEGIN
1070
    46
1040
1.127800076479913
1000
ACAD_MTEXT_DEFINED_HEIGHT_END
  0
MTEXT
  5
35A
330
1F
100
AcDbEntity
  8
STANDARD
100
AcDbMText
 10
-757.4954198213186
 20
845.6755397334683
 30
0.0
 40
1.127800076479913
 41
2.975761647579531
 71
     7
 72
     1
  1
\fArial;V+
1001
ACAD
1000
MTEXTBEGIN
1070
    73
1070
     2
1070
    44
1040
0.9638554216867471
1000
MTEXTEND
1000
ACAD_MTEXT_DEFINED_HEIGHT_BEGIN
1070
    46
1040
1.127800076479913
1000
ACAD_MTEXT_DEFINED_HEIGHT_END
  0
MTEXT
  5
35B
330
1F
100
AcDbEntity
  8
STANDARD
100
AcDbMText
 10
-698.3715464159104
 20
845.668745757104
 30
0.0
 40
1.127800076479913
 41
2.975761647579531
 71
     7
 72
     1
  1
\fArial;spi
1001
ACAD
1000
MTEXTBEGIN
1070
    73
1070
     2
1070
    44
1040
0.9638554216867471
1000
MTEXTEND
1000
ACAD_MTEXT_DEFINED_HEIGHT_BEGIN
1070
    46
1040
1.440322989239408
1000
ACAD_MTEXT_DEFINED_HEIGHT_END
  0
MTEXT
  5
35C
330
1F
100
AcDbEntity
  8
STANDARD
100
AcDbMText
 10
-694.8715464159104
 20
845.668745757104
 30
0.0
 40
1.127800076479913
 41
2.975761647579531
 71
     7
 72
     1
  1
\fArial;spi
1001
ACAD
1000
MTEXTBEGIN
1070
    73
1070
     2
1070
    44
1040
0.9638554216867471
1000
MTEXTEND
1000
ACAD_MTEXT_DEFINED_HEIGHT_BEGIN
1070
    46
1040
1.440322989239408
1000
ACAD_MTEXT_DEFINED_HEIGHT_END
  0
LINE
  5
35D
330
1F
100
AcDbEntity
  8
AUFSPANNFLAECHE_ANLAGE
100
AcDbLine
 10
-733.4661348945205
 20
837.692318361151
 30
0.0
 11
-733.4661348945205
 21
839.3119851712871
 31
0.0
  0
LINE
  5
35E
330
1F
100
AcDbEntity
  8
AUFSPANNFLAECHE_ANLAGE
100
AcDbLine
 10
-712.4661348945205
 20
837.692318361151
 30
0.0
 11
-712.4661348945205
 21
839.3119851712871
 31
0.0
  0
LINE
  5
35F
330
1F
100
AcDbEntity
  8
AUFSPANNFLAECHE_ANLAGE
100
AcDbLine
 10
-754.4661348945205
 20
837.692318361151
 30
0.0
 11
-754.4661348945205
 21
839.3119851712871
 31
0.0
  0
LINE
  5
360
330
1F
100
AcDbEntity
  8
STANDARD
100
AcDbLine
 10
-757.9661348945205
 20
837.692318361151
 30
0.0
 11
-757.9661348945205
 21
834.692318361151
 31
0.0
  0
LINE
  5
361
330
1F
100
AcDbEntity
  8
STANDARD
100
AcDbLine
 10
-761.4661348945205
 20
837.692318361151
 30
0.0
 11
-761.4661348945205
 21
834.692318361151
 31
0.0
  0
LINE
  5
362
330
1F
100
AcDbEntity
  8
STANDARD
100
AcDbLine
 10
-764.9661348945205
 20
837.692318361151
 30
0.0
 11
-764.9661348945205
 21
834.692318361151
 31
0.0
  0
LINE
  5
363
330
1F
100
AcDbEntity
  8
STANDARD
100
AcDbLine
 10
-768.4661348945205
 20
837.692318361151
 30
0.0
 11
-768.4661348945205
 21
834.692318361151
 31
0.0
  0
LINE
  5
364
330
1F
100
AcDbEntity
  8
STANDARD
100
AcDbLine
 10
-771.9661348945205
 20
837.692318361151
 30
0.0
 11
-771.9661348945205
 21
834.692318361151
 31
0.0
  0
LINE
  5
365
330
1F
100
AcDbEntity
  8
STANDARD
100
AcDbLine
 10
-775.4661348945205
 20
837.692318361151
 30
0.0
 11
-775.4661348945205
 21
834.692318361151
 31
0.0
  0
POLYLINE
  5
366
330
1F
100
AcDbEntity
  8
STANDARD
100
AcDb2dPolyline
 66
     1
 10
0.0
 20
0.0
 30
0.0
 70
     1
  0
VERTEX
  5
367
330
366
100
AcDbEntity
  8
STANDARD
100
AcDbVertex
100
AcDb2dVertex
 10
-775.4661348945205
 20
834.692318361151
 30
0.0
  0
VERTEX
  5
368
330
366
100
AcDbEntity
  8
STANDARD
100
AcDbVertex
100
AcDb2dVertex
 10
-754.4661348945205
 20
834.692318361151
 30
0.0
  0
VERTEX
  5
369
330
366
100
AcDbEntity
  8
STANDARD
100
AcDbVertex
100
AcDb2dVertex
 10
-754.4661348945205
 20
837.692318361151
 30
0.0
  0
VERTEX
  5
36A
330
366
100
AcDbEntity
  8
STANDARD
100
AcDbVertex
100
AcDb2dVertex
 10
-775.4661348945205
 20
837.692318361151
 30
0.0
  0
SEQEND
  5
36B
330
366
100
AcDbEntity
  8
STANDARD
  0
LINE
  5
36C
330
1F
100
AcDbEntity
  8
STANDARD
100
AcDbLine
 10
-736.9661348945205
 20
837.692318361151
 30
0.0
 11
-736.9661348945205
 21
834.692318361151
 31
0.0
  0
LINE
  5
36D
330
1F
100
AcDbEntity
  8
STANDARD
100
AcDbLine
 10
-740.4661348945205
 20
837.692318361151
 30
0.0
 11
-740.4661348945205
 21
834.692318361151
 31
0.0
  0
LINE
  5
36E
330
1F
100
AcDbEntity
  8
STANDARD
100
AcDbLine
 10
-743.9661348945205
 20
837.692318361151
 30
0.0
 11
-743.9661348945205
 21
834.692318361151
 31
0.0
  0
LINE
  5
36F
330
1F
100
AcDbEntity
  8
STANDARD
100
AcDbLine
 10
-747.4661348945205
 20
837.692318361151
 30
0.0
 11
-747.4661348945205
 21
834.692318361151
 31
0.0
  0
LINE
  5
370
330
1F
100
AcDbEntity
  8
STANDARD
100
AcDbLine
 10
-750.9661348945205
 20
837.692318361151
 30
0.0
 11
-750.9661348945205
 21
834.692318361151
 31
0.0
  0
LINE
  5
371
330
1F
100
AcDbEntity
  8
STANDARD
100
AcDbLine
 10
-754.4661348945205
 20
837.692318361151
 30
0.0
 11
-754.4661348945205
 21
834.692318361151
 31
0.0
  0
POLYLINE
  5
372
330
1F
100
AcDbEntity
  8
STANDARD
100
AcDb2dPolyline
 66
     1
 10
0.0
 20
0.0
 30
0.0
 70
     1
  0
VERTEX
  5
373
330
372
100
AcDbEntity
  8
STANDARD
100
AcDbVertex
100
AcDb2dVertex
 10
-754.4661348945205
 20
834.692318361151
 30
0.0
  0
VERTEX
  5
374
330
372
100
AcDbEntity
  8
STANDARD
100
AcDbVertex
100
AcDb2dVertex
 10
-733.4661348945205
 20
834.692318361151
 30
0.0
  0
VERTEX
  5
375
330
372
100
AcDbEntity
  8
STANDARD
100
AcDbVertex
100
AcDb2dVertex
 10
-733.4661348945205
 20
837.692318361151
 30
0.0
  0
VERTEX
  5
376
330
372
100
AcDbEntity
  8
STANDARD
100
AcDbVertex
100
AcDb2dVertex
 10
-754.4661348945205
 20
837.692318361151
 30
0.0
  0
SEQEND
  5
377
330
372
100
AcDbEntity
  8
STANDARD
  0
LINE
  5
378
330
1F
100
AcDbEntity
  8
STANDARD
100
AcDbLine
 10
-715.9661348945205
 20
837.692318361151
 30
0.0
 11
-715.9661348945205
 21
834.692318361151
 31
0.0
  0
LINE
  5
379
330
1F
100
AcDbEntity
  8
STANDARD
100
AcDbLine
 10
-719.4661348945205
 20
837.692318361151
 30
0.0
 11
-719.4661348945205
 21
834.692318361151
 31
0.0
  0
LINE
  5
37A
330
1F
100
AcDbEntity
  8
STANDARD
100
AcDbLine
 10
-722.9661348945205
 20
837.692318361151
 30
0.0
 11
-722.9661348945205
 21
834.692318361151
 31
0.0
  0
LINE
  5
37B
330
1F
100
AcDbEntity
  8
STANDARD
100
AcDbLine
 10
-726.4661348945205
 20
837.692318361151
 30
0.0
 11
-726.4661348945205
 21
834.692318361151
 31
0.0
  0
LINE
  5
37C
330
1F
100
AcDbEntity
  8
STANDARD
100
AcDbLine
 10
-729.9661348945205
 20
837.692318361151
 30
0.0
 11
-729.9661348945205
 21
834.692318361151
 31
0.0
  0
LINE
  5
37D
330
1F
100
AcDbEntity
  8
STANDARD
100
AcDbLine
 10
-733.4661348945205
 20
837.692318361151
 30
0.0
 11
-733.4661348945205
 21
834.692318361151
 31
0.0
  0
POLYLINE
  5
37E
330
1F
100
AcDbEntity
  8
STANDARD
100
AcDb2dPolyline
 66
     1
 10
0.0
 20
0.0
 30
0.0
 70
     1
  0
VERTEX
  5
37F
330
37E
100
AcDbEntity
  8
STANDARD
100
AcDbVertex
100
AcDb2dVertex
 10
-733.4661348945205
 20
834.692318361151
 30
0.0
  0
VERTEX
  5
380
330
37E
100
AcDbEntity
  8
STANDARD
100
AcDbVertex
100
AcDb2dVertex
 10
-712.4661348945205
 20
834.692318361151
 30
0.0
  0
VERTEX
  5
381
330
37E
100
AcDbEntity
  8
STANDARD
100
AcDbVertex
100
AcDb2dVertex
 10
-712.4661348945205
 20
837.692318361151
 30
0.0
  0
VERTEX
  5
382
330
37E
100
AcDbEntity
  8
STANDARD
100
AcDbVertex
100
AcDb2dVertex
 10
-733.4661348945205
 20
837.692318361151
 30
0.0
  0
SEQEND
  5
383
330
37E
100
AcDbEntity
  8
STANDARD
  0
POLYLINE
  5
384
330
1F
100
AcDbEntity
  8
STANDARD
100
AcDb2dPolyline
 66
     1
 10
0.0
 20
0.0
 30
0.0
 70
     1
  0
VERTEX
  5
385
330
384
100
AcDbEntity
  8
STANDARD
100
AcDbVertex
100
AcDb2dVertex
 10
-712.4661348945205
 20
834.692318361151
 30
0.0
  0
VERTEX
  5
386
330
384
100
AcDbEntity
  8
STANDARD
100
AcDbVertex
100
AcDb2dVertex
 10
-691.4661348945205
 20
834.692318361151
 30
0.0
  0
VERTEX
  5
387
330
384
100
AcDbEntity
  8
STANDARD
100
AcDbVertex
100
AcDb2dVertex
 10
-691.4661348945205
 20
837.692318361151
 30
0.0
  0
VERTEX
  5
388
330
384
100
AcDbEntity
  8
STANDARD
100
AcDbVertex
100
AcDb2dVertex
 10
-712.4661348945205
 20
837.692318361151
 30
0.0
  0
SEQEND
  5
389
330
384
100
AcDbEntity
  8
STANDARD
  0
LINE
  5
38A
330
1F
100
AcDbEntity
  8
STANDARD
100
AcDbLine
 10
-712.4661348945205
 20
837.692318361151
 30
0.0
 11
-712.4661348945205
 21
834.692318361151
 31
0.0
  0
LINE
  5
38B
330
1F
100
AcDbEntity
  8
STANDARD
100
AcDbLine
 10
-708.9661348945205
 20
837.692318361151
 30
0.0
 11
-708.9661348945205
 21
834.692318361151
 31
0.0
  0
LINE
  5
38C
330
1F
100
AcDbEntity
  8
STANDARD
100
AcDbLine
 10
-705.4661348945205
 20
837.692318361151
 30
0.0
 11
-705.4661348945205
 21
834.692318361151
 31
0.0
  0
LINE
  5
38D
330
1F
100
AcDbEntity
  8
STANDARD
100
AcDbLine
 10
-701.9661348945205
 20
837.692318361151
 30
0.0
 11
-701.9661348945205
 21
834.692318361151
 31
0.0
  0
LINE
  5
38E
330
1F
100
AcDbEntity
  8
STANDARD
100
AcDbLine
 10
-698.4661348945205
 20
837.692318361151
 30
0.0
 11
-698.4661348945205
 21
834.692318361151
 31
0.0
  0
LINE
  5
38F
330
1F
100
AcDbEntity
  8
STANDARD
100
AcDbLine
 10
-694.9661348945205
 20
837.692318361151
 30
0.0
 11
-694.9661348945205
 21
834.692318361151
 31
0.0
  0
MTEXT
  5
390
330
1F
100
AcDbEntity
  8
STANDARD
100
AcDbMText
 10
-694.9661348945205
 20
835.9306107998776
 30
0.0
 40
1.127800076479913
 41
4.45684849500496
 71
     7
 72
     1
  1
\fArial;GND
1001
ACAD
1000
MTEXTBEGIN
1070
    73
1070
     2
1070
    44
1040
0.9638554216867471
1000
MTEXTEND
1000
ACAD_MTEXT_DEFINED_HEIGHT_BEGIN
1070
    46
1040
1.168563934665934
1000
ACAD_MTEXT_DEFINED_HEIGHT_END
  0
MTEXT
  5
391
330
1F
100
AcDbEntity
  8
STANDARD
100
AcDbMText
 10
-712.4661348945205
 20
835.9306107998776
 30
0.0
 40
1.127800076479913
 41
3.892948456765002
 71
     7
 72
     1
  1
\fArial;+5V
1001
ACAD
1000
MTEXTBEGIN
1070
    73
1070
     2
1070
    44
1040
0.9638554216867471
1000
MTEXTEND
1000
ACAD_MTEXT_DEFINED_HEIGHT_BEGIN
1070
    46
1040
1.148182005572924
1000
ACAD_MTEXT_DEFINED_HEIGHT_END
  0
MTEXT
  5
392
330
1F
100
AcDbEntity
  8
STANDARD
100
AcDbMText
 10
-733.4661348945205
 20
835.9306107998776
 30
0.0
 40
1.127800076479913
 41
3.892948456765002
 71
     7
 72
     1
  1
\fArial;+5V
1001
ACAD
1000
MTEXTBEGIN
1070
    73
1070
     2
1070
    44
1040
0.9638554216867471
1000
MTEXTEND
1000
ACAD_MTEXT_DEFINED_HEIGHT_BEGIN
1070
    46
1040
1.148182005572924
1000
ACAD_MTEXT_DEFINED_HEIGHT_END
  0
MTEXT
  5
393
330
1F
100
AcDbEntity
  8
STANDARD
100
AcDbMText
 10
-715.9661348945205
 20
835.9306107998776
 30
0.0
 40
1.127800076479913
 41
4.45684849500496
 71
     7
 72
     1
  1
\fArial;GND
1001
ACAD
1000
MTEXTBEGIN
1070
    73
1070
     2
1070
    44
1040
0.9638554216867471
1000
MTEXTEND
1000
ACAD_MTEXT_DEFINED_HEIGHT_BEGIN
1070
    46
1040
1.168563934665934
1000
ACAD_MTEXT_DEFINED_HEIGHT_END
  0
MTEXT
  5
394
330
1F
100
AcDbEntity
  8
STANDARD
100
AcDbMText
 10
-754.4661348945205
 20
835.9306107998776
 30
0.0
 40
1.127800076479913
 41
3.892948456765002
 71
     7
 72
     1
  1
\fArial;+5V
1001
ACAD
1000
MTEXTBEGIN
1070
    73
1070
     2
1070
    44
1040
0.9638554216867471
1000
MTEXTEND
1000
ACAD_MTEXT_DEFINED_HEIGHT_BEGIN
1070
    46
1040
1.148182005572924
1000
ACAD_MTEXT_DEFINED_HEIGHT_END
  0
MTEXT
  5
395
330
1F
100
AcDbEntity
  8
STANDARD
100
AcDbMText
 10
-736.9661348945205
 20
835.9306107998776
 30
0.0
 40
1.127800076479913
 41
4.45684849500496
 71
     7
 72
     1
  1
\fArial;GND
1001
ACAD
1000
MTEXTBEGIN
1070
    73
1070
     2
1070
    44
1040
0.9638554216867471
1000
MTEXTEND
1000
ACAD_MTEXT_DEFINED_HEIGHT_BEGIN
1070
    46
1040
1.168563934665934
1000
ACAD_MTEXT_DEFINED_HEIGHT_END
  0
MTEXT
  5
396
330
1F
100
AcDbEntity
  8
STANDARD
100
AcDbMText
 10
-775.4661348945205
 20
835.9306107998776
 30
0.0
 40
1.127800076479913
 41
3.892948456765002
 71
     7
 72
     1
  1
\fArial;+5V
1001
ACAD
1000
MTEXTBEGIN
1070
    73
1070
     2
1070
    44
1040
0.9638554216867471
1000
MTEXTEND
1000
ACAD_MTEXT_DEFINED_HEIGHT_BEGIN
1070
    46
1040
1.148182005572924
1000
ACAD_MTEXT_DEFINED_HEIGHT_END
  0
MTEXT
  5
397
330
1F
100
AcDbEntity
  8
STANDARD
100
AcDbMText
 10
-757.9661348945205
 20
835.9306107998776
 30
0.0
 40
1.127800076479913
 41
4.45684849500496
 71
     7
 72
     1
  1
\fArial;GND
1001
ACAD
1000
MTEXTBEGIN
1070
    73
1070
     2
1070
    44
1040
0.9638554216867471
1000
MTEXTEND
1000
ACAD_MTEXT_DEFINED_HEIGHT_BEGIN
1070
    46
1040
1.168563934665934
1000
ACAD_MTEXT_DEFINED_HEIGHT_END
  0
ENDSEC
  0
SECTION
  2
OBJECTS
  0
DICTIONARY
  5
C
330
0
100
AcDbDictionary
  3
ACAD_GROUP
350
D
  3
ACAD_LAYOUT
350
1A
  3
ACAD_MATERIAL
350
43
  3
ACAD_MLEADERSTYLE
350
6B
  3
ACAD_MLINESTYLE
350
17
  3
ACAD_PLOTSETTINGS
350
19
  3
ACAD_SCALELIST
350
47
  3
ACAD_VISUALSTYLE
350
2A
  3
ACDBHEADERROUNDTRIPXREC
350
398
  3
ACDBVARIABLEDICTIONARY
350
3B9
  0
DICTIONARY
  5
3C0
330
8
100
AcDbDictionary
280
     1
  3
ACAD_XREC_ROUNDTRIP
360
3C1
  0
DICTIONARY
  5
D
102
{ACAD_REACTORS
330
C
102
}
330
C
100
AcDbDictionary
  0
DICTIONARY
  5
1A
102
{ACAD_REACTORS
330
C
102
}
330
C
100
AcDbDictionary
  0
DICTIONARY
  5
43
102
{ACAD_REACTORS
330
C
102
}
330
C
100
AcDbDictionary
  3
BYBLOCK
350
45
  3
BYLAYER
350
44
  3
GLOBAL
350
46
  0
DICTIONARY
  5
6B
102
{ACAD_REACTORS
330
C
102
}
330
C
100
AcDbDictionary
  3
STANDARD
350
6C
  0
DICTIONARY
  5
17
102
{ACAD_REACTORS
330
C
102
}
330
C
100
AcDbDictionary
  3
STANDARD
350
18
  0
DICTIONARY
  5
19
102
{ACAD_REACTORS
330
C
102
}
330
C
100
AcDbDictionary
  0
DICTIONARY
  5
47
102
{ACAD_REACTORS
330
C
102
}
330
C
100
AcDbDictionary
  3
A0
350
48
  3
A1
350
49
  3
A2
350
4A
  3
A3
350
4B
  3
A4
350
4C
  3
A5
350
4D
  3
A6
350
4E
  3
A7
350
4F
  3
A8
350
50
  3
A9
350
51
  3
B0
350
52
  3
B1
350
53
  3
B2
350
54
  3
B3
350
55
  3
B4
350
56
  3
B5
350
57
  3
B6
350
58
  3
B7
350
59
  3
B8
350
5A
  3
B9
350
5B
  3
C0
350
5C
  3
C1
350
5D
  3
C2
350
5E
  3
C3
350
5F
  3
C4
350
60
  3
C5
350
61
  3
C6
350
62
  3
C7
350
63
  3
C8
350
64
  3
C9
350
65
  3
D0
350
66
  3
D1
350
67
  3
D2
350
68
  0
DICTIONARY
  5
2A
102
{ACAD_REACTORS
330
C
102
}
330
C
100
AcDbDictionary
  3
2DWIREFRAME
350
2F
  3
BASIC
350
32
  3
BRIGHTEN
350
36
  3
COLORCHANGE
350
3A
  3
CONCEPTUAL
350
34
  3
DIM
350
35
  3
EDGECOLOROFF
350
3D
  3
FACEPATTERN
350
39
  3
FLAT
350
2B
  3
FLATWITHEDGES
350
2C
  3
GOURAUD
350
2D
  3
GOURAUDWITHEDGES
350
2E
  3
HIDDEN
350
31
  3
JITTEROFF
350
3B
  3
LINEPATTERN
350
38
  3
OVERHANGOFF
350
3C
  3
REALISTIC
350
33
  3
SHADED
350
42
  3
SHADED_WITH_EDGES
350
41
  3
SHADES_OF_GRAY
350
3E
  3
SKETCHY
350
3F
  3
THICKEN
350
37
  3
WIREFRAME
350
30
  3
X-RAY
350
40
  0
DICTIONARY
  5
398
102
{ACAD_REACTORS
330
C
102
}
330
C
100
AcDbDictionary
  3
CEPSNID
350
3A2
  3
CEPSNTYPE
350
3A1
  3
DIMSTYLEDATA
350
3B8
  3
FINGERPRINTGUID
350
3A3
  3
HYPERLINKBASE
350
39B
  3
INSUNITS
350
3A0
  3
LAYOUTDICT
350
39D
  3
LWETCUNION
350
39F
  3
PLOTSETDICT
350
39E
  3
PSVPSCALE
350
3A5
  3
PUCSBASE
350
3A8
  3
PUCSORGBACK
350
3AE
  3
PUCSORGBOTTOM
350
3AA
  3
PUCSORGFRONT
350
3AD
  3
PUCSORGLEFT
350
3AB
  3
PUCSORGRIGHT
350
3AC
  3
PUCSORGTOP
350
3A9
  3
PUCSORTHOREF
350
3A6
  3
PUCSORTHOVIEW
350
3A7
  3
STYLESHEET
350
39C
  3
TSTACKALIGN
350
399
  3
TSTACKSIZE
350
39A
  3
UCSBASE
350
3B1
  3
UCSORGBACK
350
3B7
  3
UCSORGBOTTOM
350
3B3
  3
UCSORGFRONT
350
3B6
  3
UCSORGLEFT
350
3B4
  3
UCSORGRIGHT
350
3B5
  3
UCSORGTOP
350
3B2
  3
UCSORTHOREF
350
3AF
  3
UCSORTHOVIEW
350
3B0
  3
VERSIONGUID
350
3A4
  0
DICTIONARY
  5
3B9
102
{ACAD_REACTORS
330
C
102
}
330
C
100
AcDbDictionary
  3
CANNOSCALE
350
3C2
  3
CMLEADERSTYLE
350
3BB
  3
CTABLESTYLE
350
3BA
  3
DIMASSOC
350
3BE
  3
HIDETEXT
350
3BF
  3
MSLTSCALE
350
3C3
  0
XRECORD
  5
3C1
102
{ACAD_REACTORS
330
3C0
102
}
330
3C0
100
AcDbXrecord
102
VTR_0.000_0.000_1.000_1.000_GRIDDISPLAY
 70
     3
102
VTR_0.000_0.000_1.000_1.000_GRIDMAJOR
 70
     5
102
VTR_0.000_0.000_1.000_1.000_DEFAULTLIGHTING
280
     1
102
VTR_0.000_0.000_1.000_1.000_DEFAULTLIGHTINGTYPE
 70
     1
102
VTR_0.000_0.000_1.000_1.000_BRIGHTNESS
141
0.0
102
VTR_0.000_0.000_1.000_1.000_CONTRAST
142
0.0
  0
MATERIAL
  5
45
102
{ACAD_REACTORS
330
43
102
}
102
{ACAD_XDICTIONARY
360
3C6
102
}
330
43
100
AcDbMaterial
  1
BYBLOCK
  0
MATERIAL
  5
44
102
{ACAD_REACTORS
330
43
102
}
102
{ACAD_XDICTIONARY
360
3C4
102
}
330
43
100
AcDbMaterial
  1
BYLAYER
  0
MATERIAL
  5
46
102
{ACAD_REACTORS
330
43
102
}
102
{ACAD_XDICTIONARY
360
3C8
102
}
330
43
100
AcDbMaterial
  1
GLOBAL
  0
ACAD_PROXY_OBJECT
  5
6C
102
{ACAD_REACTORS
330
6B
102
}
330
6B
100
AcDbProxyObject
 90
      499
 91
      505
 93
      610
310
40901902A4063FBFFFFFE056BD1B81E855B9FC0AD7A3703D0AD73F4214DD185B99185C9900AD7A3703D0AC73F90141901A02B5E8DC0F42B1CFC02B5E8DC0F42B1CFE5764000000000000300FC0
340
14
340
0
340
11
340
0
 94
        0
1001
ACAD_MLEADERVER
1070
     2
  0
MLINESTYLE
  5
18
102
{ACAD_REACTORS
330
17
102
}
330
17
100
AcDbMlineStyle
  2
Standard
 70
     0
  3

 62
   256
 51
90.0
 52
90.0
 71
     2
 49
0.5
 62
   256
  6
BYLAYER
 49
-0.5
 62
   256
  6
BYLAYER
  0
ACAD_PROXY_OBJECT
  5
48
102
{ACAD_REACTORS
330
47
102
}
330
47
100
AcDbProxyObject
 90
      499
 91
      503
 93
       41
310
903313A31580
  0
ACAD_PROXY_OBJECT
  5
49
102
{ACAD_REACTORS
330
47
102
}
330
47
100
AcDbProxyObject
 90
      499
 91
      503
 93
      105
310
903313A324000000000000004000
  0
ACAD_PROXY_OBJECT
  5
4A
102
{ACAD_REACTORS
330
47
102
}
330
47
100
AcDbProxyObject
 90
      499
 91
      503
 93
      105
310
903313A344000000000000104000
  0
ACAD_PROXY_OBJECT
  5
4B
102
{ACAD_REACTORS
330
47
102
}
330
47
100
AcDbProxyObject
 90
      499
 91
      503
 93
      105
310
903313A354000000000000144000
  0
ACAD_PROXY_OBJECT
  5
4C
102
{ACAD_REACTORS
330
47
102
}
330
47
100
AcDbProxyObject
 90
      499
 91
      503
 93
      105
310
903313A384000000000000204000
  0
ACAD_PROXY_OBJECT
  5
4D
102
{ACAD_REACTORS
330
47
102
}
330
47
100
AcDbProxyObject
 90
      499
 91
      503
 93
      113
310
904313A31304000000000000244000
  0
ACAD_PROXY_OBJECT
  5
4E
102
{ACAD_REACTORS
330
47
102
}
330
47
100
AcDbProxyObject
 90
      499
 91
      503
 93
      113
310
904313A31364000000000000304000
  0
ACAD_PROXY_OBJECT
  5
4F
102
{ACAD_REACTORS
330
47
102
}
330
47
100
AcDbProxyObject
 90
      499
 91
      503
 93
      113
310
904313A32304000000000000344000
  0
ACAD_PROXY_OBJECT
  5
50
102
{ACAD_REACTORS
330
47
102
}
330
47
100
AcDbProxyObject
 90
      499
 91
      503
 93
      113
310
904313A333040000000000003E4000
  0
ACAD_PROXY_OBJECT
  5
51
102
{ACAD_REACTORS
330
47
102
}
330
47
100
AcDbProxyObject
 90
      499
 91
      503
 93
      113
310
904313A34304000000000000444000
  0
ACAD_PROXY_OBJECT
  5
52
102
{ACAD_REACTORS
330
47
102
}
330
47
100
AcDbProxyObject
 90
      499
 91
      503
 93
      113
310
904313A35304000000000000494000
  0
ACAD_PROXY_OBJECT
  5
53
102
{ACAD_REACTORS
330
47
102
}
330
47
100
AcDbProxyObject
 90
      499
 91
      503
 93
      121
310
905313A3130304000000000000594000
  0
ACAD_PROXY_OBJECT
  5
54
102
{ACAD_REACTORS
330
47
102
}
330
47
100
AcDbProxyObject
 90
      499
 91
      503
 93
      105
310
903323A310000000000000010100
  0
ACAD_PROXY_OBJECT
  5
55
102
{ACAD_REACTORS
330
47
102
}
330
47
100
AcDbProxyObject
 90
      499
 91
      503
 93
      105
310
903343A310000000000000410100
  0
ACAD_PROXY_OBJECT
  5
56
102
{ACAD_REACTORS
330
47
102
}
330
47
100
AcDbProxyObject
 90
      499
 91
      503
 93
      105
310
903383A310000000000000810100
  0
ACAD_PROXY_OBJECT
  5
57
102
{ACAD_REACTORS
330
47
102
}
330
47
100
AcDbProxyObject
 90
      499
 91
      503
 93
      113
310
90431303A310000000000000910100
  0
ACAD_PROXY_OBJECT
  5
58
102
{ACAD_REACTORS
330
47
102
}
330
47
100
AcDbProxyObject
 90
      499
 91
      503
 93
      121
310
9053130303A310000000000001650100
  0
ACAD_PROXY_OBJECT
  5
59
102
{ACAD_REACTORS
330
47
102
}
330
47
100
AcDbProxyObject
 90
      499
 91
      503
 93
      257
310
90E312F31323822203D2031272D3022000000000000200FC000000000000284000
  0
ACAD_PROXY_OBJECT
  5
5A
102
{ACAD_REACTORS
330
47
102
}
330
47
100
AcDbProxyObject
 90
      499
 91
      503
 93
      249
310
90D312F363422203D2031272D3022000000000000240FC000000000000284000
  0
ACAD_PROXY_OBJECT
  5
5B
102
{ACAD_REACTORS
330
47
102
}
330
47
100
AcDbProxyObject
 90
      499
 91
      503
 93
      249
310
90D312F333222203D2031272D3022000000000000280FC000000000000284000
  0
ACAD_PROXY_OBJECT
  5
5C
102
{ACAD_REACTORS
330
47
102
}
330
47
100
AcDbProxyObject
 90
      499
 91
      503
 93
      249
310
90D312F313622203D2031272D30220000000000002C0FC000000000000284000
  0
ACAD_PROXY_OBJECT
  5
5D
102
{ACAD_REACTORS
330
47
102
}
330
47
100
AcDbProxyObject
 90
      499
 91
      503
 93
      249
310
90D332F333222203D2031272D30220000000000002E0FC000000000000284000
  0
ACAD_PROXY_OBJECT
  5
5E
102
{ACAD_REACTORS
330
47
102
}
330
47
100
AcDbProxyObject
 90
      499
 91
      503
 93
      241
310
90C312F3822203D2031272D3022000000000000300FC000000000000284000
  0
ACAD_PROXY_OBJECT
  5
5F
102
{ACAD_REACTORS
330
47
102
}
330
47
100
AcDbProxyObject
 90
      499
 91
      503
 93
      249
310
90D332F313622203D2031272D3022000000000000320FC000000000000284000
  0
ACAD_PROXY_OBJECT
  5
60
102
{ACAD_REACTORS
330
47
102
}
330
47
100
AcDbProxyObject
 90
      499
 91
      503
 93
      241
310
90C312F3422203D2031272D3022000000000000340FC000000000000284000
  0
ACAD_PROXY_OBJECT
  5
61
102
{ACAD_REACTORS
330
47
102
}
330
47
100
AcDbProxyObject
 90
      499
 91
      503
 93
      241
310
90C332F3822203D2031272D3022000000000000360FC000000000000284000
  0
ACAD_PROXY_OBJECT
  5
62
102
{ACAD_REACTORS
330
47
102
}
330
47
100
AcDbProxyObject
 90
      499
 91
      503
 93
      241
310
90C312F3222203D2031272D3022000000000000380FC000000000000284000
  0
ACAD_PROXY_OBJECT
  5
63
102
{ACAD_REACTORS
330
47
102
}
330
47
100
AcDbProxyObject
 90
      499
 91
      503
 93
      241
310
90C332F3422203D2031272D30220000000000003A0FC000000000000284000
  0
ACAD_PROXY_OBJECT
  5
64
102
{ACAD_REACTORS
330
47
102
}
330
47
100
AcDbProxyObject
 90
      499
 91
      503
 93
      161
310
90A3122203D2031272D30224000000000000284000
  0
ACAD_PROXY_OBJECT
  5
65
102
{ACAD_REACTORS
330
47
102
}
330
47
100
AcDbProxyObject
 90
      499
 91
      503
 93
      257
310
90E312D312F3222203D2031272D30220000000000003E0FC000000000000284000
  0
ACAD_PROXY_OBJECT
  5
66
102
{ACAD_REACTORS
330
47
102
}
330
47
100
AcDbProxyObject
 90
      499
 91
      503
 93
      225
310
90A3322203D2031272D302200000000000002100000000000000284000
  0
ACAD_PROXY_OBJECT
  5
67
102
{ACAD_REACTORS
330
47
102
}
330
47
100
AcDbProxyObject
 90
      499
 91
      503
 93
      225
310
90A3622203D2031272D302200000000000006100000000000000284000
  0
ACAD_PROXY_OBJECT
  5
68
102
{ACAD_REACTORS
330
47
102
}
330
47
100
AcDbProxyObject
 90
      499
 91
      503
 93
      249
310
90D31272D3022203D2031272D30220000000000000A100000000000000284000
  0
ACAD_PROXY_OBJECT
  5
2F
102
{ACAD_REACTORS
330
2A
102
}
330
2A
100
AcDbProxyObject
 90
      499
 91
      501
 93
      436
310
42CC9915DA5C99599C985B595049028333333333333E33F0000000000000F90107901411070040501600405405064090741402480A0340
1001
ACAD
1000
AcDbSavedByObjectVersion
1070
     0
  0
ACAD_PROXY_OBJECT
  5
32
102
{ACAD_REACTORS
330
2A
102
}
330
2A
100
AcDbProxyObject
 90
      499
 91
      501
 93
      388
310
4150985CDA58D07406404333333333333E33F0000000000000F90107A41107004050150841D405064090741402480A0350
1001
ACAD
1000
AcDbSavedByObjectVersion
1070
     0
  0
ACAD_PROXY_OBJECT
  5
36
102
{ACAD_REACTORS
330
2A
102
}
330
2A
100
AcDbProxyObject
 90
      499
 91
      501
 93
      428
310
42109C9A59DA1D195B90C409028333333333333E33F0000000000000F9010790141107004050150841D405064090741402480A029950
1001
ACAD
1000
AcDbSavedByObjectVersion
1070
     0
  0
ACAD_PROXY_OBJECT
  5
3A
102
{ACAD_REACTORS
330
2A
102
}
330
2A
100
AcDbProxyObject
 90
      499
 91
      501
 93
      452
310
42D0DBDB1BDC90DA185B99D95104090240C333333333333E33F0000000000000F90108901411070040501508421405064090741402480A0350
1001
ACAD
1000
AcDbSavedByObjectVersion
1070
     0
  0
ACAD_PROXY_OBJECT
  5
34
102
{ACAD_REACTORS
330
2A
102
}
330
2A
100
AcDbProxyObject
 90
      499
 91
      501
 93
      500
310
4290DBDB98D95C1D1D585B10940D028333333333333E33F0000000000000F90107902409070040501000000000018199010841D405064090740C02480A0340
1001
ACAD
1000
AcDbSavedByObjectVersion
1070
     0
  0
ACAD_PROXY_OBJECT
  5
35
102
{ACAD_REACTORS
330
2A
102
}
330
2A
100
AcDbProxyObject
 90
      499
 91
      501
 93
      412
310
40D11A5B50B409028333333333333E33F0000000000000F9010790141107004050150841D405064090741402480A02677FFFFFD0
1001
ACAD
1000
AcDbSavedByObjectVersion
1070
     0
  0
ACAD_PROXY_OBJECT
  5
3D
102
{ACAD_REACTORS
330
2A
102
}
330
2A
100
AcDbProxyObject
 90
      499
 91
      501
 93
      452
310
43115919D950DBDB1BDC93D999916409028333333333333E33F0000000000000F9010790141107004050150841D405064090741402480A0350
1001
ACAD
1000
AcDbSavedByObjectVersion
1070
     0
  0
ACAD_PROXY_OBJECT
  5
39
102
{ACAD_REACTORS
330
2A
102
}
330
2A
100
AcDbProxyObject
 90
      499
 91
      501
 93
      444
310
42D19858D95C185D1D195C9B90F409028333333333333E33F0000000000000F9010790141107004050150841D405064090741402480A0350
1001
ACAD
1000
AcDbSavedByObjectVersion
1070
     0
  0
ACAD_PROXY_OBJECT
  5
2B
102
{ACAD_REACTORS
330
2A
102
}
330
2A
100
AcDbProxyObject
 90
      499
 91
      501
 93
      380
310
41119B185D240901404333333333333E33F0000000000000F9010740A907004050150841D405064090741402480A1B50
1001
ACAD
1000
AcDbSavedByObjectVersion
1070
     0
  0
ACAD_PROXY_OBJECT
  5
2C
102
{ACAD_REACTORS
330
2A
102
}
330
2A
100
AcDbProxyObject
 90
      499
 91
      501
 93
      468
310
43519B185D15DA5D1A115919D95CD0140901404333333333333E33F0000000000000F90107409019070040501600405405064090741402480A1B50
1001
ACAD
1000
AcDbSavedByObjectVersion
1070
     0
  0
ACAD_PROXY_OBJECT
  5
2D
102
{ACAD_REACTORS
330
2A
102
}
330
2A
100
AcDbProxyObject
 90
      499
 91
      501
 93
      404
310
41D1DBDD5C985D5910240902404333333333333E33F0000000000000F9010740A9070040501641D405064090741402480A1B50
1001
ACAD
1000
AcDbSavedByObjectVersion
1070
     0
  0
ACAD_PROXY_OBJECT
  5
2E
102
{ACAD_REACTORS
330
2A
102
}
330
2A
100
AcDbProxyObject
 90
      499
 91
      501
 93
      492
310
4411DBDD5C985D5915DA5D1A115919D95CD0340902404333333333333E33F0000000000000F90107409019070040501600405405064090741402480A1B50
1001
ACAD
1000
AcDbSavedByObjectVersion
1070
     0
  0
ACAD_PROXY_OBJECT
  5
31
102
{ACAD_REACTORS
330
2A
102
}
330
2A
100
AcDbProxyObject
 90
      499
 91
      501
 93
      476
310
41921A5919195B90640502408333333333333E33F0000000000000F901079024090700405020000000000001110200405405064090740C02480A0340
1001
ACAD
1000
AcDbSavedByObjectVersion
1070
     0
  0
ACAD_PROXY_OBJECT
  5
3B
102
{ACAD_REACTORS
330
2A
102
}
330
2A
100
AcDbProxyObject
 90
      499
 91
      501
 93
      428
310
42529A5D1D195C93D999914409028333333333333E33F0000000000000F9010790141107004050150A41D405064090741402480A0350
1001
ACAD
1000
AcDbSavedByObjectVersion
1070
     0
  0
ACAD_PROXY_OBJECT
  5
38
102
{ACAD_REACTORS
330
2A
102
}
330
2A
100
AcDbProxyObject
 90
      499
 91
      501
 93
      444
310
42D31A5B995C185D1D195C9B90E409028333333333333E33F0000000000000F9010790141107004050750841D405064090741402483A0350
1001
ACAD
1000
AcDbSavedByObjectVersion
1070
     0
  0
ACAD_PROXY_OBJECT
  5
3C
102
{ACAD_REACTORS
330
2A
102
}
330
2A
100
AcDbProxyObject
 90
      499
 91
      501
 93
      444
310
42D3DD995C9A185B99D3D999915409028333333333333E33F0000000000000F9010790141107004050150941D405064090741402480A0350
1001
ACAD
1000
AcDbSavedByObjectVersion
1070
     0
  0
ACAD_PROXY_OBJECT
  5
33
102
{ACAD_REACTORS
330
2A
102
}
330
2A
100
AcDbProxyObject
 90
      499
 91
      501
 93
      428
310
425499585B1A5CDD1A58D08409038333333333333E33F0000000000000F9010740A907004050150800405405064090740C02480A1B40
1001
ACAD
1000
AcDbSavedByObjectVersion
1070
     0
  0
ACAD_PROXY_OBJECT
  5
42
102
{ACAD_REACTORS
330
2A
102
}
330
2A
100
AcDbProxyObject
 90
      499
 91
      501
 93
      420
310
4194DA1859195911B40902404333333333333E33F0000000000000F9010740A41107004050150800405405064090840C02480A0B40
1001
ACAD
1000
AcDbSavedByObjectVersion
1070
     0
  0
ACAD_PROXY_OBJECT
  5
41
102
{ACAD_REACTORS
330
2A
102
}
330
2A
100
AcDbProxyObject
 90
      499
 91
      501
 93
      516
310
4454DA18591959081DDA5D1A08195919D95CD1A40902404333333333333E33F0000000000000F901074090142907004050250800405405064090740C02480A0B40
1001
ACAD
1000
AcDbSavedByObjectVersion
1070
     0
  0
ACAD_PROXY_OBJECT
  5
3E
102
{ACAD_REACTORS
330
2A
102
}
330
2A
100
AcDbProxyObject
 90
      499
 91
      501
 93
      532
310
4394DA1859195CC81BD98811DC985E5174090240C333333333333E33F0000000000000F901079024090741D01000000000000111010841D405064090740C02480A0340
1001
ACAD
1000
AcDbSavedByObjectVersion
1070
     0
  0
ACAD_PROXY_OBJECT
  5
3F
102
{ACAD_REACTORS
330
2A
102
}
330
2A
100
AcDbProxyObject
 90
      499
 91
      501
 93
      476
310
41D4DAD95D18DA1E51840502408333333333333E33F0000000000000F901079024090741D01000000000000111010B41D405064090741802480A0340
1001
ACAD
1000
AcDbSavedByObjectVersion
1070
     0
  0
ACAD_PROXY_OBJECT
  5
37
102
{ACAD_REACTORS
330
2A
102
}
330
2A
100
AcDbProxyObject
 90
      499
 91
      501
 93
      412
310
41D51A1A58DAD95B90D409028333333333333E33F0000000000000F9010790141107004050150C41D405064090741402480A0350
1001
ACAD
1000
AcDbSavedByObjectVersion
1070
     0
  0
ACAD_PROXY_OBJECT
  5
30
102
{ACAD_REACTORS
330
2A
102
}
330
2A
100
AcDbProxyObject
 90
      499
 91
      501
 93
      420
310
4255DA5C99599C985B595059028333333333333E33F0000000000000F90107901411070040501600405405064090740C02480A0340
1001
ACAD
1000
AcDbSavedByObjectVersion
1070
     0
  0
ACAD_PROXY_OBJECT
  5
40
102
{ACAD_REACTORS
330
2A
102
}
330
2A
100
AcDbProxyObject
 90
      499
 91
      501
 93
      404
310
41560B54985E51940902404000000000000E03F0000000000000F9010740501907004050150841D405064090740C02480A1B40
1001
ACAD
1000
AcDbSavedByObjectVersion
1070
     0
  0
XRECORD
  5
3A2
102
{ACAD_REACTORS
330
398
102
}
330
398
100
AcDbXrecord
340
0
  0
XRECORD
  5
3A1
102
{ACAD_REACTORS
330
398
102
}
330
398
100
AcDbXrecord
 90
        0
  0
XRECORD
  5
3B8
102
{ACAD_REACTORS
330
398
102
}
330
398
100
AcDbXrecord
1000
DSTYLE
1002
{
1070
   279
 70
     2
1070
   340
340
11
1002
}
  0
XRECORD
  5
3A3
102
{ACAD_REACTORS
330
398
102
}
330
398
100
AcDbXrecord
  1
{E0DAB442-0454-4652-ABD8-0825A15DFA9D}
  0
XRECORD
  5
39B
102
{ACAD_REACTORS
330
398
102
}
330
398
100
AcDbXrecord
  1

  0
XRECORD
  5
3A0
102
{ACAD_REACTORS
330
398
102
}
330
398
100
AcDbXrecord
 90
        4
  0
XRECORD
  5
39D
102
{ACAD_REACTORS
330
398
102
}
330
398
100
AcDbXrecord
340
1A
  0
XRECORD
  5
39F
102
{ACAD_REACTORS
330
398
102
}
330
398
100
AcDbXrecord
 90
    10781
  0
XRECORD
  5
39E
102
{ACAD_REACTORS
330
398
102
}
330
398
100
AcDbXrecord
340
19
  0
XRECORD
  5
3A5
102
{ACAD_REACTORS
330
398
102
}
330
398
100
AcDbXrecord
 40
0.0
  0
XRECORD
  5
3A8
102
{ACAD_REACTORS
330
398
102
}
330
398
100
AcDbXrecord
340
0
  0
XRECORD
  5
3AE
102
{ACAD_REACTORS
330
398
102
}
330
398
100
AcDbXrecord
 10
0.0
 20
0.0
 30
0.0
  0
XRECORD
  5
3AA
102
{ACAD_REACTORS
330
398
102
}
330
398
100
AcDbXrecord
 10
0.0
 20
0.0
 30
0.0
  0
XRECORD
  5
3AD
102
{ACAD_REACTORS
330
398
102
}
330
398
100
AcDbXrecord
 10
0.0
 20
0.0
 30
0.0
  0
XRECORD
  5
3AB
102
{ACAD_REACTORS
330
398
102
}
330
398
100
AcDbXrecord
 10
0.0
 20
0.0
 30
0.0
  0
XRECORD
  5
3AC
102
{ACAD_REACTORS
330
398
102
}
330
398
100
AcDbXrecord
 10
0.0
 20
0.0
 30
0.0
  0
XRECORD
  5
3A9
102
{ACAD_REACTORS
330
398
102
}
330
398
100
AcDbXrecord
 10
0.0
 20
0.0
 30
0.0
  0
XRECORD
  5
3A6
102
{ACAD_REACTORS
330
398
102
}
330
398
100
AcDbXrecord
340
0
  0
XRECORD
  5
3A7
102
{ACAD_REACTORS
330
398
102
}
330
398
100
AcDbXrecord
 70
     0
  0
XRECORD
  5
39C
102
{ACAD_REACTORS
330
398
102
}
330
398
100
AcDbXrecord
  1

  0
XRECORD
  5
399
102
{ACAD_REACTORS
330
398
102
}
330
398
100
AcDbXrecord
 90
        1
  0
XRECORD
  5
39A
102
{ACAD_REACTORS
330
398
102
}
330
398
100
AcDbXrecord
 90
       70
  0
XRECORD
  5
3B1
102
{ACAD_REACTORS
330
398
102
}
330
398
100
AcDbXrecord
340
0
  0
XRECORD
  5
3B7
102
{ACAD_REACTORS
330
398
102
}
330
398
100
AcDbXrecord
 10
0.0
 20
0.0
 30
0.0
  0
XRECORD
  5
3B3
102
{ACAD_REACTORS
330
398
102
}
330
398
100
AcDbXrecord
 10
0.0
 20
0.0
 30
0.0
  0
XRECORD
  5
3B6
102
{ACAD_REACTORS
330
398
102
}
330
398
100
AcDbXrecord
 10
0.0
 20
0.0
 30
0.0
  0
XRECORD
  5
3B4
102
{ACAD_REACTORS
330
398
102
}
330
398
100
AcDbXrecord
 10
0.0
 20
0.0
 30
0.0
  0
XRECORD
  5
3B5
102
{ACAD_REACTORS
330
398
102
}
330
398
100
AcDbXrecord
 10
0.0
 20
0.0
 30
0.0
  0
XRECORD
  5
3B2
102
{ACAD_REACTORS
330
398
102
}
330
398
100
AcDbXrecord
 10
0.0
 20
0.0
 30
0.0
  0
XRECORD
  5
3AF
102
{ACAD_REACTORS
330
398
102
}
330
398
100
AcDbXrecord
340
0
  0
XRECORD
  5
3B0
102
{ACAD_REACTORS
330
398
102
}
330
398
100
AcDbXrecord
 70
     0
  0
XRECORD
  5
3A4
102
{ACAD_REACTORS
330
398
102
}
330
398
100
AcDbXrecord
  1
{FAEB1C32-E019-11D5-929B-00C0DF256EC4}
  0
DICTIONARYVAR
  5
3C2
102
{ACAD_REACTORS
330
3B9
102
}
330
3B9
100
DictionaryVariables
280
     0
  1
1:1
  0
DICTIONARYVAR
  5
3BB
102
{ACAD_REACTORS
330
3B9
102
}
330
3B9
100
DictionaryVariables
280
     0
  1
Standard
  0
DICTIONARYVAR
  5
3BA
102
{ACAD_REACTORS
330
3B9
102
}
330
3B9
100
DictionaryVariables
280
     0
  1
Standard
  0
DICTIONARYVAR
  5
3BE
102
{ACAD_REACTORS
330
3B9
102
}
330
3B9
100
DictionaryVariables
280
     0
  1
2
  0
DICTIONARYVAR
  5
3BF
102
{ACAD_REACTORS
330
3B9
102
}
330
3B9
100
DictionaryVariables
280
     0
  1
1
  0
DICTIONARYVAR
  5
3C3
102
{ACAD_REACTORS
330
3B9
102
}
330
3B9
100
DictionaryVariables
280
     0
  1
1
  0
DICTIONARY
  5
3C6
330
45
100
AcDbDictionary
280
     1
  3
ACAD_XREC_ROUNDTRIP
360
3C7
  0
DICTIONARY
  5
3C4
330
44
100
AcDbDictionary
280
     1
  3
ACAD_XREC_ROUNDTRIP
360
3C5
  0
DICTIONARY
  5
3C8
330
46
100
AcDbDictionary
280
     1
  3
ACAD_XREC_ROUNDTRIP
360
3C9
  0
XRECORD
  5
3C7
102
{ACAD_REACTORS
330
3C6
102
}
330
3C6
100
AcDbXrecord
102
MATERIAL
148
0.0
149
0.0
149
0.0
 93
        0
 94
      127
282
     0
 72
     1
 77
     1
171
     1
175
     1
179
     1
273
     0
  0
XRECORD
  5
3C5
102
{ACAD_REACTORS
330
3C4
102
}
330
3C4
100
AcDbXrecord
102
MATERIAL
148
0.0
149
0.0
149
0.0
 93
        0
 94
      127
282
     0
 72
     1
 77
     1
171
     1
175
     1
179
     1
273
     0
  0
XRECORD
  5
3C9
102
{ACAD_REACTORS
330
3C8
102
}
330
3C8
100
AcDbXrecord
102
MATERIAL
148
0.0
149
0.0
149
0.0
 93
        0
 94
      127
282
     0
 72
     1
 77
     1
171
     1
175
     1
179
     1
273
     0
  0
ENDSEC
  0
EOF
