  0
SECTION
  2
HEADER
  9
$ANGBASE
 50
0.0
  9
$EXTMAX
 10
100.0
 20
100.0
 30
0.0
  9
$INSBASE
 10
0.0
 20
0.0
 30
0.0
  9
$AUNITS
 70
0
  9
$ACADVER
  1
AC1009
  9
$UNITMODE
 70
0
  9
$EXTMIN
 10
0.0
 20
0.0
 30
0.0
  9
$ANGDIR
 70
0
  0
ENDSEC
  0
SECTION
  2
TABLES
  0
TABLE
  2
LTYPE
 70
19
  0
LTYPE
  2
PHANTOM
 70
0
  3
Phantom ______  __  __  ______  __  __  ______
 72
65
 73
6
 40
2.5
 49
1.25
 49
-0.25
 49
0.25
 49
-0.25
 49
0.25
 49
-0.25
  0
LTYPE
  2
DOT2
 70
0
  3
Dot (.5) . . . . . . . . . . . . . . . . . . . 
 72
65
 73
2
 40
0.1
 49
0.0
 49
-0.1
  0
LTYPE
  2
DIVIDE
 70
0
  3
Divide __ . . __ . . __ . . __ . . __ . . __
 72
65
 73
6
 40
1.6
 49
1.0
 49
-0.2
 49
0.0
 49
-0.2
 49
0.0
 49
-0.2
  0
LTYPE
  2
DIVIDEX2
 70
0
  3
Divide (2x) ____  . .  ____  . .  ____  . .  ____
 72
65
 73
6
 40
2.6
 49
2.0
 49
-0.2
 49
0.0
 49
-0.2
 49
0.0
 49
-0.2
  0
LTYPE
  2
CENTER
 70
0
  3
Center ____ _ ____ _ ____ _ ____ _ ____ _ ____
 72
65
 73
4
 40
2.0
 49
1.25
 49
-0.25
 49
0.25
 49
-0.25
  0
LTYPE
  2
DASHDOT
 70
0
  3
Dash dot __ . __ . __ . __ . __ . __ . __ . __
 72
65
 73
4
 40
1.4
 49
1.0
 49
-0.2
 49
0.0
 49
-0.2
  0
LTYPE
  2
CENTERX2
 70
0
  3
Center (2x) ________  __  ________  __  ________
 72
65
 73
4
 40
3.5
 49
2.5
 49
-0.25
 49
0.5
 49
-0.25
  0
LTYPE
  2
PHANTOMX2
 70
0
  3
Phantom (2x)____________    ____    ____    ____________
 72
65
 73
6
 40
4.25
 49
2.5
 49
-0.25
 49
0.5
 49
-0.25
 49
0.5
 49
-0.25
  0
LTYPE
  2
CONTINUOUS
 70
0
  3
Solid
 72
65
 73
0
 40
0.0
  0
LTYPE
  2
PHANTOM2
 70
0
  3
Phantom (.5x) ___ _ _ ___ _ _ ___ _ _ ___ _ _ ___
 72
65
 73
6
 40
1.25
 49
0.625
 49
-0.125
 49
0.125
 49
-0.125
 49
0.125
 49
-0.125
  0
LTYPE
  2
DASHED
 70
0
  3
Dashed __ __ __ __ __ __ __ __ __ __ __ __ __ _
 72
65
 73
2
 40
0.6
 49
0.5
 49
-0.1
  0
LTYPE
  2
DASHED2
 70
0
  3
Dashed (.5x) _ _ _ _ _ _ _ _ _ _ _ _ _ _
 72
65
 73
2
 40
0.3
 49
0.25
 49
-0.05
  0
LTYPE
  2
DASHDOT2
 70
0
  3
Dash dot (.5x) _ . _ . _ . _ . _ . _ . _ . _
 72
65
 73
4
 40
0.7
 49
0.5
 49
-0.1
 49
0.0
 49
-0.1
  0
LTYPE
  2
DOTX2
 70
0
  3
Dot (2x) .    .    .    .    .    .    .    . 
 72
65
 73
2
 40
0.4
 49
0.0
 49
-0.4
  0
LTYPE
  2
DIVIDE2
 70
0
  3
Divide(.5x) _ . _ . _ . _ . _ . _ . _ . _
 72
65
 73
6
 40
0.8
 49
0.5
 49
-0.1
 49
0.0
 49
-0.1
 49
0.0
 49
-0.1
  0
LTYPE
  2
CENTER2
 70
0
  3
Center (.5x) ____ _ ____ _ ____ _ ____ _ ____
 72
65
 73
4
 40
1.0
 49
0.625
 49
-0.125
 49
0.125
 49
-0.125
  0
LTYPE
  2
DASHDOTX2
 70
0
  3
Dash dot (2x) ____  .  ____  .  ____  .  ____
 72
65
 73
4
 40
2.4
 49
2.0
 49
-0.2
 49
0.0
 49
-0.2
  0
LTYPE
  2
DOT
 70
0
  3
Dot .  .  .  .  .  .  .  .  .  .  .  .  .  .  .  .
 72
65
 73
2
 40
0.2
 49
0.0
 49
-0.2
  0
LTYPE
  2
DASHEDX2
 70
0
  3
Dashed (2x) ____  ____  ____  ____  ____  ____
 72
65
 73
2
 40
1.2
 49
1.0
 49
-0.2
  0
ENDTAB
  0
TABLE
  2
LAYER
 70
6
  0
LAYER
  2
DIMENSIONS
 70
0
 62
1
  6
CONTINUOUS
  0
LAYER
  2
TABLECONTENT
 70
0
 62
1
  6
CONTINUOUS
  0
LAYER
  2
LINES
 70
0
 62
1
  6
Solid
  0
LAYER
  2
TABLEBACKGROUND
 70
0
 62
1
  6
CONTINUOUS
  0
LAYER
  2
TABLEGRID
 70
0
 62
1
  6
CONTINUOUS
  0
LAYER
  2
VIEWPORTS
 70
0
 62
7
  6
CONTINUOUS
  0
ENDTAB
  0
TABLE
  2
STYLE
 70
12
  0
STYLE
  2
TIMES
 70
0
 40
0.0
 41
1.0
 42
1.0
 50
0.0
 71
0
  3
times.ttf
  4

  0
STYLE
  2
ARIAL
 70
0
 40
0.0
 41
1.0
 42
1.0
 50
0.0
 71
0
  3
arial.ttf
  4

  0
STYLE
  2
TIMES_BOLD
 70
0
 40
0.0
 41
1.0
 42
1.0
 50
0.0
 71
0
  3
timesbd.ttf
  4

  0
STYLE
  2
ARIAL_BLACK
 70
0
 40
0.0
 41
1.0
 42
1.0
 50
0.0
 71
0
  3
ariblk.ttf
  4

  0
STYLE
  2
TIMES_ITALIC
 70
0
 40
0.0
 41
1.0
 42
1.0
 50
0.0
 71
0
  3
timesi.ttf
  4

  0
STYLE
  2
ISOCPEUR
 70
0
 40
0.0
 41
1.0
 42
1.0
 50
0.0
 71
0
  3
isocpeur.ttf
  4

  0
STYLE
  2
ARIAL_BOLD
 70
0
 40
0.0
 41
1.0
 42
1.0
 50
0.0
 71
0
  3
arialbd.ttf
  4

  0
STYLE
  2
ARIAL_ITALIC
 70
0
 40
0.0
 41
1.0
 42
1.0
 50
0.0
 71
0
  3
ariali.ttf
  4

  0
STYLE
  2
ARIAL_BOLD_ITALIC
 70
0
 40
0.0
 41
1.0
 42
1.0
 50
0.0
 71
0
  3
arialbi.ttf
  4

  0
STYLE
  2
TIMES_BOLD_ITALIC
 70
0
 40
0.0
 41
1.0
 42
1.0
 50
0.0
 71
0
  3
timesbi.ttf
  4

  0
STYLE
  2
ISOCPEUR_ITALIC
 70
0
 40
0.0
 41
1.0
 42
1.0
 50
0.0
 71
0
  3
isocpeui.ttf
  4

  0
STYLE
  2
STANDARD
 70
0
 40
0.0
 41
1.0
 42
1.0
 50
0.0
 71
0
  3
arial.ttf
  4

  0
ENDTAB
  0
TABLE
  2
VIEW
 70
0
  0
ENDTAB
  0
TABLE
  2
APPID
 70
1
  0
APPID
  2
DXFWRITE
 70
0
  0
ENDTAB
  0
TABLE
  2
VPORT
 70
0
  0
ENDTAB
  0
TABLE
  2
UCS
 70
0
  0
ENDTAB
  0
ENDSEC
  0
SECTION
  2
BLOCKS
  0
ENDSEC
  0
SECTION
  2
ENTITIES
  0
VIEWPORT
  8
VIEWPORTS
 67
1
 10
0.0
 20
0.0
 30
0.0
 40
1.0
 41
1.0
 68
1
 69
1
1001
ACAD
1000
MVIEW
1002
{
1070
16
1010
0.0
1020
0.0
1030
0.0
1010
0.0
1020
0.0
1030
0.0
1040
0.0
1040
1.0
1040
0.0
1040
0.0
1040
50.0
1040
0.0
1040
0.0
1070
0
1070
100
1070
1
1070
3
1070
0
1070
0
1070
0
1070
0
1040
0.0
1040
0.0
1040
0.0
1040
0.1
1040
0.1
1040
0.1
1040
0.1
1070
0
1002
{
1002
}
1002
}
  0
POLYLINE
  8
LINES
 66
1
 10
0.0
 20
0.0
 30
0.0
 70
8
  0
VERTEX
  8
LINES
 10
251.0
 20
90.0
 30
0.0
  0
VERTEX
  8
LINES
 10
252.0
 20
91.0
 30
0.0
  0
VERTEX
  8
LINES
 10
252.0
 20
92.0
 30
0.0
  0
VERTEX
  8
LINES
 10
252.0
 20
93.0
 30
0.0
  0
VERTEX
  8
LINES
 10
253.0
 20
94.0
 30
0.0
  0
VERTEX
  8
LINES
 10
253.0
 20
95.0
 30
0.0
  0
VERTEX
  8
LINES
 10
253.0
 20
96.0
 30
0.0
  0
VERTEX
  8
LINES
 10
253.0
 20
97.0
 30
0.0
  0
VERTEX
  8
LINES
 10
254.0
 20
98.0
 30
0.0
  0
VERTEX
  8
LINES
 10
254.0
 20
99.0
 30
0.0
  0
VERTEX
  8
LINES
 10
254.0
 20
100.0
 30
0.0
  0
VERTEX
  8
LINES
 10
254.0
 20
101.0
 30
0.0
  0
VERTEX
  8
LINES
 10
255.0
 20
102.0
 30
0.0
  0
VERTEX
  8
LINES
 10
255.0
 20
103.0
 30
0.0
  0
VERTEX
  8
LINES
 10
255.0
 20
104.0
 30
0.0
  0
VERTEX
  8
LINES
 10
255.0
 20
105.0
 30
0.0
  0
VERTEX
  8
LINES
 10
256.0
 20
106.0
 30
0.0
  0
VERTEX
  8
LINES
 10
256.0
 20
107.0
 30
0.0
  0
VERTEX
  8
LINES
 10
256.0
 20
108.0
 30
0.0
  0
VERTEX
  8
LINES
 10
256.0
 20
109.0
 30
0.0
  0
VERTEX
  8
LINES
 10
257.0
 20
110.0
 30
0.0
  0
VERTEX
  8
LINES
 10
257.0
 20
111.0
 30
0.0
  0
VERTEX
  8
LINES
 10
257.0
 20
112.0
 30
0.0
  0
VERTEX
  8
LINES
 10
257.0
 20
113.0
 30
0.0
  0
VERTEX
  8
LINES
 10
258.0
 20
114.0
 30
0.0
  0
VERTEX
  8
LINES
 10
258.0
 20
115.0
 30
0.0
  0
VERTEX
  8
LINES
 10
258.0
 20
116.0
 30
0.0
  0
VERTEX
  8
LINES
 10
258.0
 20
117.0
 30
0.0
  0
VERTEX
  8
LINES
 10
259.0
 20
118.0
 30
0.0
  0
VERTEX
  8
LINES
 10
259.0
 20
119.0
 30
0.0
  0
VERTEX
  8
LINES
 10
259.0
 20
120.0
 30
0.0
  0
VERTEX
  8
LINES
 10
259.0
 20
121.0
 30
0.0
  0
VERTEX
  8
LINES
 10
259.0
 20
122.0
 30
0.0
  0
VERTEX
  8
LINES
 10
260.0
 20
123.0
 30
0.0
  0
VERTEX
  8
LINES
 10
260.0
 20
124.0
 30
0.0
  0
VERTEX
  8
LINES
 10
260.0
 20
125.0
 30
0.0
  0
VERTEX
  8
LINES
 10
260.0
 20
126.0
 30
0.0
  0
VERTEX
  8
LINES
 10
260.0
 20
127.0
 30
0.0
  0
VERTEX
  8
LINES
 10
260.0
 20
128.0
 30
0.0
  0
VERTEX
  8
LINES
 10
261.0
 20
129.0
 30
0.0
  0
VERTEX
  8
LINES
 10
261.0
 20
130.0
 30
0.0
  0
VERTEX
  8
LINES
 10
261.0
 20
131.0
 30
0.0
  0
VERTEX
  8
LINES
 10
261.0
 20
132.0
 30
0.0
  0
VERTEX
  8
LINES
 10
261.0
 20
133.0
 30
0.0
  0
VERTEX
  8
LINES
 10
262.0
 20
134.0
 30
0.0
  0
VERTEX
  8
LINES
 10
262.0
 20
135.0
 30
0.0
  0
VERTEX
  8
LINES
 10
262.0
 20
136.0
 30
0.0
  0
VERTEX
  8
LINES
 10
262.0
 20
137.0
 30
0.0
  0
VERTEX
  8
LINES
 10
262.0
 20
138.0
 30
0.0
  0
VERTEX
  8
LINES
 10
262.0
 20
139.0
 30
0.0
  0
VERTEX
  8
LINES
 10
263.0
 20
140.0
 30
0.0
  0
VERTEX
  8
LINES
 10
263.0
 20
141.0
 30
0.0
  0
VERTEX
  8
LINES
 10
263.0
 20
142.0
 30
0.0
  0
VERTEX
  8
LINES
 10
263.0
 20
143.0
 30
0.0
  0
VERTEX
  8
LINES
 10
263.0
 20
144.0
 30
0.0
  0
VERTEX
  8
LINES
 10
263.0
 20
145.0
 30
0.0
  0
VERTEX
  8
LINES
 10
263.0
 20
146.0
 30
0.0
  0
VERTEX
  8
LINES
 10
263.0
 20
147.0
 30
0.0
  0
VERTEX
  8
LINES
 10
264.0
 20
148.0
 30
0.0
  0
VERTEX
  8
LINES
 10
264.0
 20
149.0
 30
0.0
  0
VERTEX
  8
LINES
 10
264.0
 20
150.0
 30
0.0
  0
VERTEX
  8
LINES
 10
264.0
 20
151.0
 30
0.0
  0
VERTEX
  8
LINES
 10
264.0
 20
152.0
 30
0.0
  0
VERTEX
  8
LINES
 10
264.0
 20
153.0
 30
0.0
  0
VERTEX
  8
LINES
 10
264.0
 20
154.0
 30
0.0
  0
VERTEX
  8
LINES
 10
264.0
 20
155.0
 30
0.0
  0
VERTEX
  8
LINES
 10
265.0
 20
156.0
 30
0.0
  0
VERTEX
  8
LINES
 10
265.0
 20
157.0
 30
0.0
  0
VERTEX
  8
LINES
 10
265.0
 20
158.0
 30
0.0
  0
VERTEX
  8
LINES
 10
265.0
 20
159.0
 30
0.0
  0
VERTEX
  8
LINES
 10
265.0
 20
160.0
 30
0.0
  0
VERTEX
  8
LINES
 10
265.0
 20
161.0
 30
0.0
  0
VERTEX
  8
LINES
 10
265.0
 20
162.0
 30
0.0
  0
VERTEX
  8
LINES
 10
265.0
 20
163.0
 30
0.0
  0
VERTEX
  8
LINES
 10
265.0
 20
164.0
 30
0.0
  0
VERTEX
  8
LINES
 10
265.0
 20
165.0
 30
0.0
  0
VERTEX
  8
LINES
 10
265.0
 20
166.0
 30
0.0
  0
VERTEX
  8
LINES
 10
266.0
 20
167.0
 30
0.0
  0
VERTEX
  8
LINES
 10
266.0
 20
168.0
 30
0.0
  0
VERTEX
  8
LINES
 10
266.0
 20
169.0
 30
0.0
  0
VERTEX
  8
LINES
 10
266.0
 20
170.0
 30
0.0
  0
VERTEX
  8
LINES
 10
266.0
 20
171.0
 30
0.0
  0
VERTEX
  8
LINES
 10
266.0
 20
172.0
 30
0.0
  0
VERTEX
  8
LINES
 10
266.0
 20
173.0
 30
0.0
  0
VERTEX
  8
LINES
 10
266.0
 20
174.0
 30
0.0
  0
VERTEX
  8
LINES
 10
266.0
 20
175.0
 30
0.0
  0
VERTEX
  8
LINES
 10
266.0
 20
176.0
 30
0.0
  0
VERTEX
  8
LINES
 10
266.0
 20
177.0
 30
0.0
  0
VERTEX
  8
LINES
 10
266.0
 20
178.0
 30
0.0
  0
VERTEX
  8
LINES
 10
266.0
 20
179.0
 30
0.0
  0
VERTEX
  8
LINES
 10
266.0
 20
180.0
 30
0.0
  0
VERTEX
  8
LINES
 10
266.0
 20
181.0
 30
0.0
  0
VERTEX
  8
LINES
 10
266.0
 20
182.0
 30
0.0
  0
VERTEX
  8
LINES
 10
266.0
 20
183.0
 30
0.0
  0
VERTEX
  8
LINES
 10
266.0
 20
184.0
 30
0.0
  0
VERTEX
  8
LINES
 10
266.0
 20
185.0
 30
0.0
  0
VERTEX
  8
LINES
 10
266.0
 20
186.0
 30
0.0
  0
VERTEX
  8
LINES
 10
266.0
 20
187.0
 30
0.0
  0
VERTEX
  8
LINES
 10
266.0
 20
188.0
 30
0.0
  0
VERTEX
  8
LINES
 10
266.0
 20
189.0
 30
0.0
  0
VERTEX
  8
LINES
 10
266.0
 20
190.0
 30
0.0
  0
VERTEX
  8
LINES
 10
266.0
 20
191.0
 30
0.0
  0
VERTEX
  8
LINES
 10
266.0
 20
192.0
 30
0.0
  0
VERTEX
  8
LINES
 10
266.0
 20
193.0
 30
0.0
  0
VERTEX
  8
LINES
 10
266.0
 20
194.0
 30
0.0
  0
VERTEX
  8
LINES
 10
266.0
 20
195.0
 30
0.0
  0
VERTEX
  8
LINES
 10
266.0
 20
196.0
 30
0.0
  0
VERTEX
  8
LINES
 10
266.0
 20
197.0
 30
0.0
  0
VERTEX
  8
LINES
 10
266.0
 20
198.0
 30
0.0
  0
VERTEX
  8
LINES
 10
266.0
 20
199.0
 30
0.0
  0
VERTEX
  8
LINES
 10
266.0
 20
200.0
 30
0.0
  0
VERTEX
  8
LINES
 10
266.0
 20
201.0
 30
0.0
  0
VERTEX
  8
LINES
 10
266.0
 20
202.0
 30
0.0
  0
VERTEX
  8
LINES
 10
266.0
 20
203.0
 30
0.0
  0
VERTEX
  8
LINES
 10
266.0
 20
204.0
 30
0.0
  0
VERTEX
  8
LINES
 10
266.0
 20
205.0
 30
0.0
  0
VERTEX
  8
LINES
 10
266.0
 20
206.0
 30
0.0
  0
VERTEX
  8
LINES
 10
266.0
 20
207.0
 30
0.0
  0
VERTEX
  8
LINES
 10
266.0
 20
208.0
 30
0.0
  0
VERTEX
  8
LINES
 10
266.0
 20
209.0
 30
0.0
  0
VERTEX
  8
LINES
 10
266.0
 20
210.0
 30
0.0
  0
VERTEX
  8
LINES
 10
266.0
 20
211.0
 30
0.0
  0
VERTEX
  8
LINES
 10
266.0
 20
212.0
 30
0.0
  0
VERTEX
  8
LINES
 10
266.0
 20
213.0
 30
0.0
  0
VERTEX
  8
LINES
 10
266.0
 20
214.0
 30
0.0
  0
VERTEX
  8
LINES
 10
266.0
 20
215.0
 30
0.0
  0
VERTEX
  8
LINES
 10
266.0
 20
216.0
 30
0.0
  0
VERTEX
  8
LINES
 10
266.0
 20
217.0
 30
0.0
  0
VERTEX
  8
LINES
 10
266.0
 20
218.0
 30
0.0
  0
VERTEX
  8
LINES
 10
265.0
 20
219.0
 30
0.0
  0
VERTEX
  8
LINES
 10
265.0
 20
220.0
 30
0.0
  0
VERTEX
  8
LINES
 10
265.0
 20
221.0
 30
0.0
  0
VERTEX
  8
LINES
 10
265.0
 20
222.0
 30
0.0
  0
VERTEX
  8
LINES
 10
265.0
 20
223.0
 30
0.0
  0
VERTEX
  8
LINES
 10
265.0
 20
224.0
 30
0.0
  0
VERTEX
  8
LINES
 10
265.0
 20
225.0
 30
0.0
  0
VERTEX
  8
LINES
 10
265.0
 20
226.0
 30
0.0
  0
VERTEX
  8
LINES
 10
265.0
 20
227.0
 30
0.0
  0
VERTEX
  8
LINES
 10
265.0
 20
228.0
 30
0.0
  0
VERTEX
  8
LINES
 10
265.0
 20
229.0
 30
0.0
  0
VERTEX
  8
LINES
 10
264.0
 20
230.0
 30
0.0
  0
VERTEX
  8
LINES
 10
264.0
 20
231.0
 30
0.0
  0
VERTEX
  8
LINES
 10
264.0
 20
232.0
 30
0.0
  0
VERTEX
  8
LINES
 10
264.0
 20
233.0
 30
0.0
  0
VERTEX
  8
LINES
 10
264.0
 20
234.0
 30
0.0
  0
VERTEX
  8
LINES
 10
264.0
 20
235.0
 30
0.0
  0
VERTEX
  8
LINES
 10
264.0
 20
236.0
 30
0.0
  0
VERTEX
  8
LINES
 10
264.0
 20
237.0
 30
0.0
  0
VERTEX
  8
LINES
 10
263.0
 20
238.0
 30
0.0
  0
VERTEX
  8
LINES
 10
263.0
 20
239.0
 30
0.0
  0
VERTEX
  8
LINES
 10
263.0
 20
240.0
 30
0.0
  0
VERTEX
  8
LINES
 10
263.0
 20
241.0
 30
0.0
  0
VERTEX
  8
LINES
 10
263.0
 20
242.0
 30
0.0
  0
VERTEX
  8
LINES
 10
263.0
 20
243.0
 30
0.0
  0
VERTEX
  8
LINES
 10
263.0
 20
244.0
 30
0.0
  0
VERTEX
  8
LINES
 10
263.0
 20
245.0
 30
0.0
  0
VERTEX
  8
LINES
 10
262.0
 20
246.0
 30
0.0
  0
VERTEX
  8
LINES
 10
262.0
 20
247.0
 30
0.0
  0
VERTEX
  8
LINES
 10
262.0
 20
248.0
 30
0.0
  0
VERTEX
  8
LINES
 10
262.0
 20
249.0
 30
0.0
  0
VERTEX
  8
LINES
 10
262.0
 20
250.0
 30
0.0
  0
VERTEX
  8
LINES
 10
262.0
 20
251.0
 30
0.0
  0
VERTEX
  8
LINES
 10
261.0
 20
252.0
 30
0.0
  0
VERTEX
  8
LINES
 10
261.0
 20
253.0
 30
0.0
  0
VERTEX
  8
LINES
 10
261.0
 20
254.0
 30
0.0
  0
VERTEX
  8
LINES
 10
261.0
 20
255.0
 30
0.0
  0
VERTEX
  8
LINES
 10
261.0
 20
256.0
 30
0.0
  0
VERTEX
  8
LINES
 10
260.0
 20
257.0
 30
0.0
  0
VERTEX
  8
LINES
 10
260.0
 20
258.0
 30
0.0
  0
VERTEX
  8
LINES
 10
260.0
 20
259.0
 30
0.0
  0
VERTEX
  8
LINES
 10
260.0
 20
260.0
 30
0.0
  0
VERTEX
  8
LINES
 10
260.0
 20
261.0
 30
0.0
  0
VERTEX
  8
LINES
 10
260.0
 20
262.0
 30
0.0
  0
VERTEX
  8
LINES
 10
259.0
 20
263.0
 30
0.0
  0
VERTEX
  8
LINES
 10
259.0
 20
264.0
 30
0.0
  0
VERTEX
  8
LINES
 10
259.0
 20
265.0
 30
0.0
  0
VERTEX
  8
LINES
 10
259.0
 20
266.0
 30
0.0
  0
VERTEX
  8
LINES
 10
259.0
 20
267.0
 30
0.0
  0
VERTEX
  8
LINES
 10
258.0
 20
268.0
 30
0.0
  0
VERTEX
  8
LINES
 10
258.0
 20
269.0
 30
0.0
  0
VERTEX
  8
LINES
 10
258.0
 20
270.0
 30
0.0
  0
VERTEX
  8
LINES
 10
258.0
 20
271.0
 30
0.0
  0
VERTEX
  8
LINES
 10
257.0
 20
272.0
 30
0.0
  0
VERTEX
  8
LINES
 10
257.0
 20
273.0
 30
0.0
  0
VERTEX
  8
LINES
 10
257.0
 20
274.0
 30
0.0
  0
VERTEX
  8
LINES
 10
257.0
 20
275.0
 30
0.0
  0
VERTEX
  8
LINES
 10
256.0
 20
276.0
 30
0.0
  0
VERTEX
  8
LINES
 10
256.0
 20
277.0
 30
0.0
  0
VERTEX
  8
LINES
 10
256.0
 20
278.0
 30
0.0
  0
VERTEX
  8
LINES
 10
256.0
 20
279.0
 30
0.0
  0
VERTEX
  8
LINES
 10
255.0
 20
280.0
 30
0.0
  0
VERTEX
  8
LINES
 10
255.0
 20
281.0
 30
0.0
  0
VERTEX
  8
LINES
 10
255.0
 20
282.0
 30
0.0
  0
VERTEX
  8
LINES
 10
255.0
 20
283.0
 30
0.0
  0
VERTEX
  8
LINES
 10
254.0
 20
284.0
 30
0.0
  0
VERTEX
  8
LINES
 10
254.0
 20
285.0
 30
0.0
  0
VERTEX
  8
LINES
 10
254.0
 20
286.0
 30
0.0
  0
VERTEX
  8
LINES
 10
254.0
 20
287.0
 30
0.0
  0
VERTEX
  8
LINES
 10
253.0
 20
288.0
 30
0.0
  0
VERTEX
  8
LINES
 10
253.0
 20
289.0
 30
0.0
  0
VERTEX
  8
LINES
 10
253.0
 20
290.0
 30
0.0
  0
VERTEX
  8
LINES
 10
253.0
 20
291.0
 30
0.0
  0
VERTEX
  8
LINES
 10
252.0
 20
292.0
 30
0.0
  0
VERTEX
  8
LINES
 10
252.0
 20
293.0
 30
0.0
  0
VERTEX
  8
LINES
 10
252.0
 20
294.0
 30
0.0
  0
VERTEX
  8
LINES
 10
251.0
 20
295.0
 30
0.0
  0
VERTEX
  8
LINES
 10
251.0
 20
296.0
 30
0.0
  0
VERTEX
  8
LINES
 10
251.0
 20
297.0
 30
0.0
  0
VERTEX
  8
LINES
 10
251.0
 20
298.0
 30
0.0
  0
SEQEND
  0
POLYLINE
  8
LINES
 66
1
 10
0.0
 20
0.0
 30
0.0
 70
8
  0
VERTEX
  8
LINES
 10
257.0
 20
293.0
 30
0.0
  0
VERTEX
  8
LINES
 10
257.0
 20
294.0
 30
0.0
  0
VERTEX
  8
LINES
 10
257.0
 20
295.0
 30
0.0
  0
VERTEX
  8
LINES
 10
257.0
 20
296.0
 30
0.0
  0
VERTEX
  8
LINES
 10
257.0
 20
297.0
 30
0.0
  0
VERTEX
  8
LINES
 10
258.0
 20
298.0
 30
0.0
  0
VERTEX
  8
LINES
 10
258.0
 20
299.0
 30
0.0
  0
VERTEX
  8
LINES
 10
258.0
 20
300.0
 30
0.0
  0
VERTEX
  8
LINES
 10
258.0
 20
301.0
 30
0.0
  0
VERTEX
  8
LINES
 10
258.0
 20
302.0
 30
0.0
  0
VERTEX
  8
LINES
 10
258.0
 20
303.0
 30
0.0
  0
VERTEX
  8
LINES
 10
258.0
 20
304.0
 30
0.0
  0
VERTEX
  8
LINES
 10
258.0
 20
305.0
 30
0.0
  0
VERTEX
  8
LINES
 10
259.0
 20
306.0
 30
0.0
  0
VERTEX
  8
LINES
 10
259.0
 20
307.0
 30
0.0
  0
VERTEX
  8
LINES
 10
259.0
 20
308.0
 30
0.0
  0
VERTEX
  8
LINES
 10
259.0
 20
309.0
 30
0.0
  0
VERTEX
  8
LINES
 10
259.0
 20
310.0
 30
0.0
  0
VERTEX
  8
LINES
 10
259.0
 20
311.0
 30
0.0
  0
VERTEX
  8
LINES
 10
259.0
 20
312.0
 30
0.0
  0
VERTEX
  8
LINES
 10
259.0
 20
313.0
 30
0.0
  0
VERTEX
  8
LINES
 10
259.0
 20
314.0
 30
0.0
  0
VERTEX
  8
LINES
 10
260.0
 20
315.0
 30
0.0
  0
VERTEX
  8
LINES
 10
260.0
 20
316.0
 30
0.0
  0
VERTEX
  8
LINES
 10
260.0
 20
317.0
 30
0.0
  0
VERTEX
  8
LINES
 10
260.0
 20
318.0
 30
0.0
  0
VERTEX
  8
LINES
 10
260.0
 20
319.0
 30
0.0
  0
VERTEX
  8
LINES
 10
260.0
 20
320.0
 30
0.0
  0
VERTEX
  8
LINES
 10
260.0
 20
321.0
 30
0.0
  0
VERTEX
  8
LINES
 10
260.0
 20
322.0
 30
0.0
  0
VERTEX
  8
LINES
 10
260.0
 20
323.0
 30
0.0
  0
VERTEX
  8
LINES
 10
260.0
 20
324.0
 30
0.0
  0
VERTEX
  8
LINES
 10
260.0
 20
325.0
 30
0.0
  0
VERTEX
  8
LINES
 10
260.0
 20
326.0
 30
0.0
  0
VERTEX
  8
LINES
 10
260.0
 20
327.0
 30
0.0
  0
VERTEX
  8
LINES
 10
261.0
 20
328.0
 30
0.0
  0
VERTEX
  8
LINES
 10
261.0
 20
329.0
 30
0.0
  0
VERTEX
  8
LINES
 10
261.0
 20
330.0
 30
0.0
  0
VERTEX
  8
LINES
 10
261.0
 20
331.0
 30
0.0
  0
VERTEX
  8
LINES
 10
261.0
 20
332.0
 30
0.0
  0
VERTEX
  8
LINES
 10
261.0
 20
333.0
 30
0.0
  0
VERTEX
  8
LINES
 10
261.0
 20
334.0
 30
0.0
  0
VERTEX
  8
LINES
 10
261.0
 20
335.0
 30
0.0
  0
VERTEX
  8
LINES
 10
261.0
 20
336.0
 30
0.0
  0
VERTEX
  8
LINES
 10
261.0
 20
337.0
 30
0.0
  0
VERTEX
  8
LINES
 10
261.0
 20
338.0
 30
0.0
  0
VERTEX
  8
LINES
 10
261.0
 20
339.0
 30
0.0
  0
VERTEX
  8
LINES
 10
261.0
 20
340.0
 30
0.0
  0
VERTEX
  8
LINES
 10
261.0
 20
341.0
 30
0.0
  0
VERTEX
  8
LINES
 10
261.0
 20
342.0
 30
0.0
  0
VERTEX
  8
LINES
 10
261.0
 20
343.0
 30
0.0
  0
VERTEX
  8
LINES
 10
261.0
 20
344.0
 30
0.0
  0
VERTEX
  8
LINES
 10
261.0
 20
345.0
 30
0.0
  0
VERTEX
  8
LINES
 10
261.0
 20
346.0
 30
0.0
  0
VERTEX
  8
LINES
 10
261.0
 20
347.0
 30
0.0
  0
VERTEX
  8
LINES
 10
261.0
 20
348.0
 30
0.0
  0
VERTEX
  8
LINES
 10
261.0
 20
349.0
 30
0.0
  0
VERTEX
  8
LINES
 10
261.0
 20
350.0
 30
0.0
  0
VERTEX
  8
LINES
 10
262.0
 20
351.0
 30
0.0
  0
VERTEX
  8
LINES
 10
262.0
 20
352.0
 30
0.0
  0
VERTEX
  8
LINES
 10
262.0
 20
353.0
 30
0.0
  0
VERTEX
  8
LINES
 10
262.0
 20
354.0
 30
0.0
  0
VERTEX
  8
LINES
 10
262.0
 20
355.0
 30
0.0
  0
VERTEX
  8
LINES
 10
262.0
 20
356.0
 30
0.0
  0
VERTEX
  8
LINES
 10
262.0
 20
357.0
 30
0.0
  0
VERTEX
  8
LINES
 10
262.0
 20
358.0
 30
0.0
  0
VERTEX
  8
LINES
 10
262.0
 20
359.0
 30
0.0
  0
VERTEX
  8
LINES
 10
262.0
 20
360.0
 30
0.0
  0
VERTEX
  8
LINES
 10
262.0
 20
361.0
 30
0.0
  0
VERTEX
  8
LINES
 10
262.0
 20
362.0
 30
0.0
  0
VERTEX
  8
LINES
 10
262.0
 20
363.0
 30
0.0
  0
VERTEX
  8
LINES
 10
262.0
 20
364.0
 30
0.0
  0
VERTEX
  8
LINES
 10
262.0
 20
365.0
 30
0.0
  0
VERTEX
  8
LINES
 10
262.0
 20
366.0
 30
0.0
  0
VERTEX
  8
LINES
 10
262.0
 20
367.0
 30
0.0
  0
VERTEX
  8
LINES
 10
262.0
 20
368.0
 30
0.0
  0
VERTEX
  8
LINES
 10
262.0
 20
369.0
 30
0.0
  0
VERTEX
  8
LINES
 10
261.0
 20
370.0
 30
0.0
  0
VERTEX
  8
LINES
 10
261.0
 20
371.0
 30
0.0
  0
VERTEX
  8
LINES
 10
261.0
 20
372.0
 30
0.0
  0
VERTEX
  8
LINES
 10
261.0
 20
373.0
 30
0.0
  0
VERTEX
  8
LINES
 10
261.0
 20
374.0
 30
0.0
  0
VERTEX
  8
LINES
 10
261.0
 20
375.0
 30
0.0
  0
VERTEX
  8
LINES
 10
261.0
 20
376.0
 30
0.0
  0
VERTEX
  8
LINES
 10
261.0
 20
377.0
 30
0.0
  0
VERTEX
  8
LINES
 10
261.0
 20
378.0
 30
0.0
  0
VERTEX
  8
LINES
 10
261.0
 20
379.0
 30
0.0
  0
VERTEX
  8
LINES
 10
261.0
 20
380.0
 30
0.0
  0
VERTEX
  8
LINES
 10
261.0
 20
381.0
 30
0.0
  0
VERTEX
  8
LINES
 10
261.0
 20
382.0
 30
0.0
  0
VERTEX
  8
LINES
 10
261.0
 20
383.0
 30
0.0
  0
SEQEND
  0
POLYLINE
  8
LINES
 66
1
 10
0.0
 20
0.0
 30
0.0
 70
8
  0
VERTEX
  8
LINES
 10
332.0
 20
91.0
 30
0.0
  0
VERTEX
  8
LINES
 10
332.0
 20
92.0
 30
0.0
  0
VERTEX
  8
LINES
 10
332.0
 20
93.0
 30
0.0
  0
VERTEX
  8
LINES
 10
331.0
 20
94.0
 30
0.0
  0
VERTEX
  8
LINES
 10
331.0
 20
95.0
 30
0.0
  0
VERTEX
  8
LINES
 10
331.0
 20
96.0
 30
0.0
  0
VERTEX
  8
LINES
 10
330.0
 20
97.0
 30
0.0
  0
VERTEX
  8
LINES
 10
330.0
 20
98.0
 30
0.0
  0
VERTEX
  8
LINES
 10
330.0
 20
99.0
 30
0.0
  0
VERTEX
  8
LINES
 10
330.0
 20
100.0
 30
0.0
  0
VERTEX
  8
LINES
 10
329.0
 20
101.0
 30
0.0
  0
VERTEX
  8
LINES
 10
329.0
 20
102.0
 30
0.0
  0
VERTEX
  8
LINES
 10
329.0
 20
103.0
 30
0.0
  0
VERTEX
  8
LINES
 10
329.0
 20
104.0
 30
0.0
  0
VERTEX
  8
LINES
 10
328.0
 20
105.0
 30
0.0
  0
VERTEX
  8
LINES
 10
328.0
 20
106.0
 30
0.0
  0
VERTEX
  8
LINES
 10
328.0
 20
107.0
 30
0.0
  0
VERTEX
  8
LINES
 10
328.0
 20
108.0
 30
0.0
  0
VERTEX
  8
LINES
 10
327.0
 20
109.0
 30
0.0
  0
VERTEX
  8
LINES
 10
327.0
 20
110.0
 30
0.0
  0
VERTEX
  8
LINES
 10
327.0
 20
111.0
 30
0.0
  0
VERTEX
  8
LINES
 10
327.0
 20
112.0
 30
0.0
  0
VERTEX
  8
LINES
 10
326.0
 20
113.0
 30
0.0
  0
VERTEX
  8
LINES
 10
326.0
 20
114.0
 30
0.0
  0
VERTEX
  8
LINES
 10
326.0
 20
115.0
 30
0.0
  0
VERTEX
  8
LINES
 10
326.0
 20
116.0
 30
0.0
  0
VERTEX
  8
LINES
 10
325.0
 20
117.0
 30
0.0
  0
VERTEX
  8
LINES
 10
325.0
 20
118.0
 30
0.0
  0
VERTEX
  8
LINES
 10
325.0
 20
119.0
 30
0.0
  0
VERTEX
  8
LINES
 10
325.0
 20
120.0
 30
0.0
  0
VERTEX
  8
LINES
 10
325.0
 20
121.0
 30
0.0
  0
VERTEX
  8
LINES
 10
324.0
 20
122.0
 30
0.0
  0
VERTEX
  8
LINES
 10
324.0
 20
123.0
 30
0.0
  0
VERTEX
  8
LINES
 10
324.0
 20
124.0
 30
0.0
  0
VERTEX
  8
LINES
 10
324.0
 20
125.0
 30
0.0
  0
VERTEX
  8
LINES
 10
323.0
 20
126.0
 30
0.0
  0
VERTEX
  8
LINES
 10
323.0
 20
127.0
 30
0.0
  0
VERTEX
  8
LINES
 10
323.0
 20
128.0
 30
0.0
  0
VERTEX
  8
LINES
 10
323.0
 20
129.0
 30
0.0
  0
VERTEX
  8
LINES
 10
323.0
 20
130.0
 30
0.0
  0
VERTEX
  8
LINES
 10
323.0
 20
131.0
 30
0.0
  0
VERTEX
  8
LINES
 10
322.0
 20
132.0
 30
0.0
  0
VERTEX
  8
LINES
 10
322.0
 20
133.0
 30
0.0
  0
VERTEX
  8
LINES
 10
322.0
 20
134.0
 30
0.0
  0
VERTEX
  8
LINES
 10
322.0
 20
135.0
 30
0.0
  0
VERTEX
  8
LINES
 10
322.0
 20
136.0
 30
0.0
  0
VERTEX
  8
LINES
 10
321.0
 20
137.0
 30
0.0
  0
VERTEX
  8
LINES
 10
321.0
 20
138.0
 30
0.0
  0
VERTEX
  8
LINES
 10
321.0
 20
139.0
 30
0.0
  0
VERTEX
  8
LINES
 10
321.0
 20
140.0
 30
0.0
  0
VERTEX
  8
LINES
 10
321.0
 20
141.0
 30
0.0
  0
VERTEX
  8
LINES
 10
321.0
 20
142.0
 30
0.0
  0
VERTEX
  8
LINES
 10
321.0
 20
143.0
 30
0.0
  0
VERTEX
  8
LINES
 10
320.0
 20
144.0
 30
0.0
  0
VERTEX
  8
LINES
 10
320.0
 20
145.0
 30
0.0
  0
VERTEX
  8
LINES
 10
320.0
 20
146.0
 30
0.0
  0
VERTEX
  8
LINES
 10
320.0
 20
147.0
 30
0.0
  0
VERTEX
  8
LINES
 10
320.0
 20
148.0
 30
0.0
  0
VERTEX
  8
LINES
 10
320.0
 20
149.0
 30
0.0
  0
VERTEX
  8
LINES
 10
320.0
 20
150.0
 30
0.0
  0
VERTEX
  8
LINES
 10
319.0
 20
151.0
 30
0.0
  0
VERTEX
  8
LINES
 10
319.0
 20
152.0
 30
0.0
  0
VERTEX
  8
LINES
 10
319.0
 20
153.0
 30
0.0
  0
VERTEX
  8
LINES
 10
319.0
 20
154.0
 30
0.0
  0
VERTEX
  8
LINES
 10
319.0
 20
155.0
 30
0.0
  0
VERTEX
  8
LINES
 10
319.0
 20
156.0
 30
0.0
  0
VERTEX
  8
LINES
 10
319.0
 20
157.0
 30
0.0
  0
VERTEX
  8
LINES
 10
319.0
 20
158.0
 30
0.0
  0
VERTEX
  8
LINES
 10
318.0
 20
159.0
 30
0.0
  0
VERTEX
  8
LINES
 10
318.0
 20
160.0
 30
0.0
  0
VERTEX
  8
LINES
 10
318.0
 20
161.0
 30
0.0
  0
VERTEX
  8
LINES
 10
318.0
 20
162.0
 30
0.0
  0
VERTEX
  8
LINES
 10
318.0
 20
163.0
 30
0.0
  0
VERTEX
  8
LINES
 10
318.0
 20
164.0
 30
0.0
  0
VERTEX
  8
LINES
 10
318.0
 20
165.0
 30
0.0
  0
VERTEX
  8
LINES
 10
318.0
 20
166.0
 30
0.0
  0
VERTEX
  8
LINES
 10
318.0
 20
167.0
 30
0.0
  0
VERTEX
  8
LINES
 10
318.0
 20
168.0
 30
0.0
  0
VERTEX
  8
LINES
 10
318.0
 20
169.0
 30
0.0
  0
VERTEX
  8
LINES
 10
317.0
 20
170.0
 30
0.0
  0
VERTEX
  8
LINES
 10
317.0
 20
171.0
 30
0.0
  0
VERTEX
  8
LINES
 10
317.0
 20
172.0
 30
0.0
  0
VERTEX
  8
LINES
 10
317.0
 20
173.0
 30
0.0
  0
VERTEX
  8
LINES
 10
317.0
 20
174.0
 30
0.0
  0
VERTEX
  8
LINES
 10
317.0
 20
175.0
 30
0.0
  0
VERTEX
  8
LINES
 10
317.0
 20
176.0
 30
0.0
  0
VERTEX
  8
LINES
 10
317.0
 20
177.0
 30
0.0
  0
VERTEX
  8
LINES
 10
317.0
 20
178.0
 30
0.0
  0
VERTEX
  8
LINES
 10
317.0
 20
179.0
 30
0.0
  0
VERTEX
  8
LINES
 10
317.0
 20
180.0
 30
0.0
  0
VERTEX
  8
LINES
 10
317.0
 20
181.0
 30
0.0
  0
VERTEX
  8
LINES
 10
317.0
 20
182.0
 30
0.0
  0
VERTEX
  8
LINES
 10
317.0
 20
183.0
 30
0.0
  0
VERTEX
  8
LINES
 10
317.0
 20
184.0
 30
0.0
  0
VERTEX
  8
LINES
 10
317.0
 20
185.0
 30
0.0
  0
VERTEX
  8
LINES
 10
317.0
 20
186.0
 30
0.0
  0
VERTEX
  8
LINES
 10
317.0
 20
187.0
 30
0.0
  0
VERTEX
  8
LINES
 10
317.0
 20
188.0
 30
0.0
  0
VERTEX
  8
LINES
 10
317.0
 20
189.0
 30
0.0
  0
VERTEX
  8
LINES
 10
317.0
 20
190.0
 30
0.0
  0
VERTEX
  8
LINES
 10
317.0
 20
191.0
 30
0.0
  0
VERTEX
  8
LINES
 10
317.0
 20
192.0
 30
0.0
  0
VERTEX
  8
LINES
 10
317.0
 20
193.0
 30
0.0
  0
VERTEX
  8
LINES
 10
317.0
 20
194.0
 30
0.0
  0
VERTEX
  8
LINES
 10
317.0
 20
195.0
 30
0.0
  0
VERTEX
  8
LINES
 10
317.0
 20
196.0
 30
0.0
  0
VERTEX
  8
LINES
 10
317.0
 20
197.0
 30
0.0
  0
VERTEX
  8
LINES
 10
317.0
 20
198.0
 30
0.0
  0
VERTEX
  8
LINES
 10
317.0
 20
199.0
 30
0.0
  0
VERTEX
  8
LINES
 10
317.0
 20
200.0
 30
0.0
  0
VERTEX
  8
LINES
 10
317.0
 20
201.0
 30
0.0
  0
VERTEX
  8
LINES
 10
317.0
 20
202.0
 30
0.0
  0
VERTEX
  8
LINES
 10
317.0
 20
203.0
 30
0.0
  0
VERTEX
  8
LINES
 10
317.0
 20
204.0
 30
0.0
  0
VERTEX
  8
LINES
 10
317.0
 20
205.0
 30
0.0
  0
VERTEX
  8
LINES
 10
317.0
 20
206.0
 30
0.0
  0
VERTEX
  8
LINES
 10
317.0
 20
207.0
 30
0.0
  0
VERTEX
  8
LINES
 10
317.0
 20
208.0
 30
0.0
  0
VERTEX
  8
LINES
 10
317.0
 20
209.0
 30
0.0
  0
VERTEX
  8
LINES
 10
317.0
 20
210.0
 30
0.0
  0
VERTEX
  8
LINES
 10
317.0
 20
211.0
 30
0.0
  0
VERTEX
  8
LINES
 10
317.0
 20
212.0
 30
0.0
  0
VERTEX
  8
LINES
 10
317.0
 20
213.0
 30
0.0
  0
VERTEX
  8
LINES
 10
317.0
 20
214.0
 30
0.0
  0
VERTEX
  8
LINES
 10
317.0
 20
215.0
 30
0.0
  0
VERTEX
  8
LINES
 10
317.0
 20
216.0
 30
0.0
  0
VERTEX
  8
LINES
 10
317.0
 20
217.0
 30
0.0
  0
VERTEX
  8
LINES
 10
317.0
 20
218.0
 30
0.0
  0
VERTEX
  8
LINES
 10
317.0
 20
219.0
 30
0.0
  0
VERTEX
  8
LINES
 10
317.0
 20
220.0
 30
0.0
  0
VERTEX
  8
LINES
 10
317.0
 20
221.0
 30
0.0
  0
VERTEX
  8
LINES
 10
318.0
 20
222.0
 30
0.0
  0
VERTEX
  8
LINES
 10
318.0
 20
223.0
 30
0.0
  0
VERTEX
  8
LINES
 10
318.0
 20
224.0
 30
0.0
  0
VERTEX
  8
LINES
 10
318.0
 20
225.0
 30
0.0
  0
VERTEX
  8
LINES
 10
318.0
 20
226.0
 30
0.0
  0
VERTEX
  8
LINES
 10
318.0
 20
227.0
 30
0.0
  0
VERTEX
  8
LINES
 10
318.0
 20
228.0
 30
0.0
  0
VERTEX
  8
LINES
 10
318.0
 20
229.0
 30
0.0
  0
VERTEX
  8
LINES
 10
318.0
 20
230.0
 30
0.0
  0
VERTEX
  8
LINES
 10
318.0
 20
231.0
 30
0.0
  0
VERTEX
  8
LINES
 10
318.0
 20
232.0
 30
0.0
  0
VERTEX
  8
LINES
 10
319.0
 20
233.0
 30
0.0
  0
VERTEX
  8
LINES
 10
319.0
 20
234.0
 30
0.0
  0
VERTEX
  8
LINES
 10
319.0
 20
235.0
 30
0.0
  0
VERTEX
  8
LINES
 10
319.0
 20
236.0
 30
0.0
  0
VERTEX
  8
LINES
 10
319.0
 20
237.0
 30
0.0
  0
VERTEX
  8
LINES
 10
319.0
 20
238.0
 30
0.0
  0
VERTEX
  8
LINES
 10
319.0
 20
239.0
 30
0.0
  0
VERTEX
  8
LINES
 10
319.0
 20
240.0
 30
0.0
  0
VERTEX
  8
LINES
 10
319.0
 20
241.0
 30
0.0
  0
VERTEX
  8
LINES
 10
320.0
 20
242.0
 30
0.0
  0
VERTEX
  8
LINES
 10
320.0
 20
243.0
 30
0.0
  0
VERTEX
  8
LINES
 10
320.0
 20
244.0
 30
0.0
  0
VERTEX
  8
LINES
 10
320.0
 20
245.0
 30
0.0
  0
VERTEX
  8
LINES
 10
320.0
 20
246.0
 30
0.0
  0
VERTEX
  8
LINES
 10
320.0
 20
247.0
 30
0.0
  0
VERTEX
  8
LINES
 10
320.0
 20
248.0
 30
0.0
  0
VERTEX
  8
LINES
 10
321.0
 20
249.0
 30
0.0
  0
VERTEX
  8
LINES
 10
321.0
 20
250.0
 30
0.0
  0
VERTEX
  8
LINES
 10
321.0
 20
251.0
 30
0.0
  0
VERTEX
  8
LINES
 10
321.0
 20
252.0
 30
0.0
  0
VERTEX
  8
LINES
 10
321.0
 20
253.0
 30
0.0
  0
VERTEX
  8
LINES
 10
321.0
 20
254.0
 30
0.0
  0
VERTEX
  8
LINES
 10
322.0
 20
255.0
 30
0.0
  0
VERTEX
  8
LINES
 10
322.0
 20
256.0
 30
0.0
  0
VERTEX
  8
LINES
 10
322.0
 20
257.0
 30
0.0
  0
VERTEX
  8
LINES
 10
322.0
 20
258.0
 30
0.0
  0
VERTEX
  8
LINES
 10
322.0
 20
259.0
 30
0.0
  0
VERTEX
  8
LINES
 10
322.0
 20
260.0
 30
0.0
  0
VERTEX
  8
LINES
 10
323.0
 20
261.0
 30
0.0
  0
VERTEX
  8
LINES
 10
323.0
 20
262.0
 30
0.0
  0
VERTEX
  8
LINES
 10
323.0
 20
263.0
 30
0.0
  0
VERTEX
  8
LINES
 10
323.0
 20
264.0
 30
0.0
  0
VERTEX
  8
LINES
 10
323.0
 20
265.0
 30
0.0
  0
VERTEX
  8
LINES
 10
324.0
 20
266.0
 30
0.0
  0
VERTEX
  8
LINES
 10
324.0
 20
267.0
 30
0.0
  0
VERTEX
  8
LINES
 10
324.0
 20
268.0
 30
0.0
  0
VERTEX
  8
LINES
 10
324.0
 20
269.0
 30
0.0
  0
VERTEX
  8
LINES
 10
324.0
 20
270.0
 30
0.0
  0
VERTEX
  8
LINES
 10
325.0
 20
271.0
 30
0.0
  0
VERTEX
  8
LINES
 10
325.0
 20
272.0
 30
0.0
  0
VERTEX
  8
LINES
 10
325.0
 20
273.0
 30
0.0
  0
VERTEX
  8
LINES
 10
325.0
 20
274.0
 30
0.0
  0
VERTEX
  8
LINES
 10
325.0
 20
275.0
 30
0.0
  0
VERTEX
  8
LINES
 10
326.0
 20
276.0
 30
0.0
  0
VERTEX
  8
LINES
 10
326.0
 20
277.0
 30
0.0
  0
VERTEX
  8
LINES
 10
326.0
 20
278.0
 30
0.0
  0
VERTEX
  8
LINES
 10
326.0
 20
279.0
 30
0.0
  0
VERTEX
  8
LINES
 10
327.0
 20
280.0
 30
0.0
  0
VERTEX
  8
LINES
 10
327.0
 20
281.0
 30
0.0
  0
VERTEX
  8
LINES
 10
327.0
 20
282.0
 30
0.0
  0
VERTEX
  8
LINES
 10
327.0
 20
283.0
 30
0.0
  0
VERTEX
  8
LINES
 10
328.0
 20
284.0
 30
0.0
  0
VERTEX
  8
LINES
 10
328.0
 20
285.0
 30
0.0
  0
VERTEX
  8
LINES
 10
328.0
 20
286.0
 30
0.0
  0
VERTEX
  8
LINES
 10
328.0
 20
287.0
 30
0.0
  0
VERTEX
  8
LINES
 10
329.0
 20
288.0
 30
0.0
  0
VERTEX
  8
LINES
 10
329.0
 20
289.0
 30
0.0
  0
VERTEX
  8
LINES
 10
329.0
 20
290.0
 30
0.0
  0
VERTEX
  8
LINES
 10
329.0
 20
291.0
 30
0.0
  0
VERTEX
  8
LINES
 10
330.0
 20
292.0
 30
0.0
  0
VERTEX
  8
LINES
 10
330.0
 20
293.0
 30
0.0
  0
VERTEX
  8
LINES
 10
330.0
 20
294.0
 30
0.0
  0
SEQEND
  0
POLYLINE
  8
LINES
 66
1
 10
0.0
 20
0.0
 30
0.0
 70
8
  0
VERTEX
  8
LINES
 10
329.0
 20
288.0
 30
0.0
  0
VERTEX
  8
LINES
 10
329.0
 20
289.0
 30
0.0
  0
VERTEX
  8
LINES
 10
329.0
 20
290.0
 30
0.0
  0
VERTEX
  8
LINES
 10
328.0
 20
291.0
 30
0.0
  0
VERTEX
  8
LINES
 10
328.0
 20
292.0
 30
0.0
  0
VERTEX
  8
LINES
 10
328.0
 20
293.0
 30
0.0
  0
VERTEX
  8
LINES
 10
328.0
 20
294.0
 30
0.0
  0
VERTEX
  8
LINES
 10
327.0
 20
295.0
 30
0.0
  0
VERTEX
  8
LINES
 10
327.0
 20
296.0
 30
0.0
  0
VERTEX
  8
LINES
 10
327.0
 20
297.0
 30
0.0
  0
VERTEX
  8
LINES
 10
326.0
 20
298.0
 30
0.0
  0
VERTEX
  8
LINES
 10
326.0
 20
299.0
 30
0.0
  0
VERTEX
  8
LINES
 10
326.0
 20
300.0
 30
0.0
  0
VERTEX
  8
LINES
 10
326.0
 20
301.0
 30
0.0
  0
VERTEX
  8
LINES
 10
325.0
 20
302.0
 30
0.0
  0
VERTEX
  8
LINES
 10
325.0
 20
303.0
 30
0.0
  0
VERTEX
  8
LINES
 10
325.0
 20
304.0
 30
0.0
  0
VERTEX
  8
LINES
 10
324.0
 20
305.0
 30
0.0
  0
VERTEX
  8
LINES
 10
324.0
 20
306.0
 30
0.0
  0
VERTEX
  8
LINES
 10
324.0
 20
307.0
 30
0.0
  0
VERTEX
  8
LINES
 10
324.0
 20
308.0
 30
0.0
  0
VERTEX
  8
LINES
 10
323.0
 20
309.0
 30
0.0
  0
VERTEX
  8
LINES
 10
323.0
 20
310.0
 30
0.0
  0
VERTEX
  8
LINES
 10
323.0
 20
311.0
 30
0.0
  0
VERTEX
  8
LINES
 10
323.0
 20
312.0
 30
0.0
  0
VERTEX
  8
LINES
 10
322.0
 20
313.0
 30
0.0
  0
VERTEX
  8
LINES
 10
322.0
 20
314.0
 30
0.0
  0
VERTEX
  8
LINES
 10
322.0
 20
315.0
 30
0.0
  0
VERTEX
  8
LINES
 10
322.0
 20
316.0
 30
0.0
  0
VERTEX
  8
LINES
 10
321.0
 20
317.0
 30
0.0
  0
VERTEX
  8
LINES
 10
321.0
 20
318.0
 30
0.0
  0
VERTEX
  8
LINES
 10
321.0
 20
319.0
 30
0.0
  0
VERTEX
  8
LINES
 10
321.0
 20
320.0
 30
0.0
  0
VERTEX
  8
LINES
 10
320.0
 20
321.0
 30
0.0
  0
VERTEX
  8
LINES
 10
320.0
 20
322.0
 30
0.0
  0
VERTEX
  8
LINES
 10
320.0
 20
323.0
 30
0.0
  0
VERTEX
  8
LINES
 10
320.0
 20
324.0
 30
0.0
  0
VERTEX
  8
LINES
 10
320.0
 20
325.0
 30
0.0
  0
VERTEX
  8
LINES
 10
319.0
 20
326.0
 30
0.0
  0
VERTEX
  8
LINES
 10
319.0
 20
327.0
 30
0.0
  0
VERTEX
  8
LINES
 10
319.0
 20
328.0
 30
0.0
  0
VERTEX
  8
LINES
 10
319.0
 20
329.0
 30
0.0
  0
VERTEX
  8
LINES
 10
318.0
 20
330.0
 30
0.0
  0
VERTEX
  8
LINES
 10
318.0
 20
331.0
 30
0.0
  0
VERTEX
  8
LINES
 10
318.0
 20
332.0
 30
0.0
  0
VERTEX
  8
LINES
 10
318.0
 20
333.0
 30
0.0
  0
VERTEX
  8
LINES
 10
318.0
 20
334.0
 30
0.0
  0
VERTEX
  8
LINES
 10
317.0
 20
335.0
 30
0.0
  0
VERTEX
  8
LINES
 10
317.0
 20
336.0
 30
0.0
  0
VERTEX
  8
LINES
 10
317.0
 20
337.0
 30
0.0
  0
VERTEX
  8
LINES
 10
317.0
 20
338.0
 30
0.0
  0
VERTEX
  8
LINES
 10
317.0
 20
339.0
 30
0.0
  0
VERTEX
  8
LINES
 10
317.0
 20
340.0
 30
0.0
  0
VERTEX
  8
LINES
 10
316.0
 20
341.0
 30
0.0
  0
VERTEX
  8
LINES
 10
316.0
 20
342.0
 30
0.0
  0
VERTEX
  8
LINES
 10
316.0
 20
343.0
 30
0.0
  0
VERTEX
  8
LINES
 10
316.0
 20
344.0
 30
0.0
  0
VERTEX
  8
LINES
 10
316.0
 20
345.0
 30
0.0
  0
VERTEX
  8
LINES
 10
315.0
 20
346.0
 30
0.0
  0
VERTEX
  8
LINES
 10
315.0
 20
347.0
 30
0.0
  0
VERTEX
  8
LINES
 10
315.0
 20
348.0
 30
0.0
  0
VERTEX
  8
LINES
 10
315.0
 20
349.0
 30
0.0
  0
VERTEX
  8
LINES
 10
315.0
 20
350.0
 30
0.0
  0
VERTEX
  8
LINES
 10
315.0
 20
351.0
 30
0.0
  0
VERTEX
  8
LINES
 10
314.0
 20
352.0
 30
0.0
  0
VERTEX
  8
LINES
 10
314.0
 20
353.0
 30
0.0
  0
VERTEX
  8
LINES
 10
314.0
 20
354.0
 30
0.0
  0
VERTEX
  8
LINES
 10
314.0
 20
355.0
 30
0.0
  0
VERTEX
  8
LINES
 10
314.0
 20
356.0
 30
0.0
  0
VERTEX
  8
LINES
 10
314.0
 20
357.0
 30
0.0
  0
VERTEX
  8
LINES
 10
314.0
 20
358.0
 30
0.0
  0
VERTEX
  8
LINES
 10
313.0
 20
359.0
 30
0.0
  0
VERTEX
  8
LINES
 10
313.0
 20
360.0
 30
0.0
  0
VERTEX
  8
LINES
 10
313.0
 20
361.0
 30
0.0
  0
VERTEX
  8
LINES
 10
313.0
 20
362.0
 30
0.0
  0
VERTEX
  8
LINES
 10
313.0
 20
363.0
 30
0.0
  0
VERTEX
  8
LINES
 10
313.0
 20
364.0
 30
0.0
  0
VERTEX
  8
LINES
 10
313.0
 20
365.0
 30
0.0
  0
VERTEX
  8
LINES
 10
313.0
 20
366.0
 30
0.0
  0
VERTEX
  8
LINES
 10
312.0
 20
367.0
 30
0.0
  0
VERTEX
  8
LINES
 10
312.0
 20
368.0
 30
0.0
  0
VERTEX
  8
LINES
 10
312.0
 20
369.0
 30
0.0
  0
VERTEX
  8
LINES
 10
312.0
 20
370.0
 30
0.0
  0
VERTEX
  8
LINES
 10
312.0
 20
371.0
 30
0.0
  0
SEQEND
  0
POLYLINE
  8
LINES
 66
1
 10
0.0
 20
0.0
 30
0.0
 70
8
  0
VERTEX
  8
LINES
 10
205.0
 20
389.0
 30
0.0
  0
VERTEX
  8
LINES
 10
205.0
 20
390.0
 30
0.0
  0
VERTEX
  8
LINES
 10
205.0
 20
391.0
 30
0.0
  0
VERTEX
  8
LINES
 10
205.0
 20
392.0
 30
0.0
  0
VERTEX
  8
LINES
 10
205.0
 20
393.0
 30
0.0
  0
VERTEX
  8
LINES
 10
206.0
 20
394.0
 30
0.0
  0
VERTEX
  8
LINES
 10
206.0
 20
395.0
 30
0.0
  0
VERTEX
  8
LINES
 10
206.0
 20
396.0
 30
0.0
  0
VERTEX
  8
LINES
 10
206.0
 20
397.0
 30
0.0
  0
VERTEX
  8
LINES
 10
206.0
 20
398.0
 30
0.0
  0
VERTEX
  8
LINES
 10
207.0
 20
399.0
 30
0.0
  0
VERTEX
  8
LINES
 10
207.0
 20
400.0
 30
0.0
  0
VERTEX
  8
LINES
 10
207.0
 20
401.0
 30
0.0
  0
VERTEX
  8
LINES
 10
207.0
 20
402.0
 30
0.0
  0
VERTEX
  8
LINES
 10
207.0
 20
403.0
 30
0.0
  0
VERTEX
  8
LINES
 10
207.0
 20
404.0
 30
0.0
  0
VERTEX
  8
LINES
 10
208.0
 20
405.0
 30
0.0
  0
VERTEX
  8
LINES
 10
208.0
 20
406.0
 30
0.0
  0
VERTEX
  8
LINES
 10
208.0
 20
407.0
 30
0.0
  0
VERTEX
  8
LINES
 10
208.0
 20
408.0
 30
0.0
  0
VERTEX
  8
LINES
 10
208.0
 20
409.0
 30
0.0
  0
VERTEX
  8
LINES
 10
208.0
 20
410.0
 30
0.0
  0
VERTEX
  8
LINES
 10
209.0
 20
411.0
 30
0.0
  0
VERTEX
  8
LINES
 10
209.0
 20
412.0
 30
0.0
  0
VERTEX
  8
LINES
 10
209.0
 20
413.0
 30
0.0
  0
VERTEX
  8
LINES
 10
209.0
 20
414.0
 30
0.0
  0
VERTEX
  8
LINES
 10
209.0
 20
415.0
 30
0.0
  0
VERTEX
  8
LINES
 10
209.0
 20
416.0
 30
0.0
  0
VERTEX
  8
LINES
 10
209.0
 20
417.0
 30
0.0
  0
VERTEX
  8
LINES
 10
210.0
 20
418.0
 30
0.0
  0
VERTEX
  8
LINES
 10
210.0
 20
419.0
 30
0.0
  0
VERTEX
  8
LINES
 10
210.0
 20
420.0
 30
0.0
  0
VERTEX
  8
LINES
 10
210.0
 20
421.0
 30
0.0
  0
VERTEX
  8
LINES
 10
210.0
 20
422.0
 30
0.0
  0
VERTEX
  8
LINES
 10
210.0
 20
423.0
 30
0.0
  0
VERTEX
  8
LINES
 10
210.0
 20
424.0
 30
0.0
  0
VERTEX
  8
LINES
 10
210.0
 20
425.0
 30
0.0
  0
VERTEX
  8
LINES
 10
211.0
 20
426.0
 30
0.0
  0
VERTEX
  8
LINES
 10
211.0
 20
427.0
 30
0.0
  0
VERTEX
  8
LINES
 10
211.0
 20
428.0
 30
0.0
  0
VERTEX
  8
LINES
 10
211.0
 20
429.0
 30
0.0
  0
VERTEX
  8
LINES
 10
211.0
 20
430.0
 30
0.0
  0
VERTEX
  8
LINES
 10
211.0
 20
431.0
 30
0.0
  0
VERTEX
  8
LINES
 10
211.0
 20
432.0
 30
0.0
  0
VERTEX
  8
LINES
 10
211.0
 20
433.0
 30
0.0
  0
VERTEX
  8
LINES
 10
211.0
 20
434.0
 30
0.0
  0
VERTEX
  8
LINES
 10
211.0
 20
435.0
 30
0.0
  0
VERTEX
  8
LINES
 10
212.0
 20
436.0
 30
0.0
  0
VERTEX
  8
LINES
 10
212.0
 20
437.0
 30
0.0
  0
VERTEX
  8
LINES
 10
212.0
 20
438.0
 30
0.0
  0
VERTEX
  8
LINES
 10
212.0
 20
439.0
 30
0.0
  0
VERTEX
  8
LINES
 10
212.0
 20
440.0
 30
0.0
  0
VERTEX
  8
LINES
 10
212.0
 20
441.0
 30
0.0
  0
VERTEX
  8
LINES
 10
212.0
 20
442.0
 30
0.0
  0
VERTEX
  8
LINES
 10
212.0
 20
443.0
 30
0.0
  0
VERTEX
  8
LINES
 10
212.0
 20
444.0
 30
0.0
  0
VERTEX
  8
LINES
 10
212.0
 20
445.0
 30
0.0
  0
VERTEX
  8
LINES
 10
212.0
 20
446.0
 30
0.0
  0
VERTEX
  8
LINES
 10
212.0
 20
447.0
 30
0.0
  0
VERTEX
  8
LINES
 10
212.0
 20
448.0
 30
0.0
  0
VERTEX
  8
LINES
 10
212.0
 20
449.0
 30
0.0
  0
VERTEX
  8
LINES
 10
212.0
 20
450.0
 30
0.0
  0
VERTEX
  8
LINES
 10
213.0
 20
451.0
 30
0.0
  0
VERTEX
  8
LINES
 10
213.0
 20
452.0
 30
0.0
  0
VERTEX
  8
LINES
 10
213.0
 20
453.0
 30
0.0
  0
VERTEX
  8
LINES
 10
213.0
 20
454.0
 30
0.0
  0
VERTEX
  8
LINES
 10
213.0
 20
455.0
 30
0.0
  0
VERTEX
  8
LINES
 10
213.0
 20
456.0
 30
0.0
  0
VERTEX
  8
LINES
 10
213.0
 20
457.0
 30
0.0
  0
VERTEX
  8
LINES
 10
213.0
 20
458.0
 30
0.0
  0
VERTEX
  8
LINES
 10
213.0
 20
459.0
 30
0.0
  0
VERTEX
  8
LINES
 10
213.0
 20
460.0
 30
0.0
  0
VERTEX
  8
LINES
 10
213.0
 20
461.0
 30
0.0
  0
VERTEX
  8
LINES
 10
213.0
 20
462.0
 30
0.0
  0
VERTEX
  8
LINES
 10
213.0
 20
463.0
 30
0.0
  0
VERTEX
  8
LINES
 10
213.0
 20
464.0
 30
0.0
  0
VERTEX
  8
LINES
 10
213.0
 20
465.0
 30
0.0
  0
VERTEX
  8
LINES
 10
213.0
 20
466.0
 30
0.0
  0
VERTEX
  8
LINES
 10
213.0
 20
467.0
 30
0.0
  0
VERTEX
  8
LINES
 10
213.0
 20
468.0
 30
0.0
  0
VERTEX
  8
LINES
 10
213.0
 20
469.0
 30
0.0
  0
VERTEX
  8
LINES
 10
213.0
 20
470.0
 30
0.0
  0
VERTEX
  8
LINES
 10
213.0
 20
471.0
 30
0.0
  0
VERTEX
  8
LINES
 10
213.0
 20
472.0
 30
0.0
  0
VERTEX
  8
LINES
 10
213.0
 20
473.0
 30
0.0
  0
VERTEX
  8
LINES
 10
213.0
 20
474.0
 30
0.0
  0
VERTEX
  8
LINES
 10
213.0
 20
475.0
 30
0.0
  0
VERTEX
  8
LINES
 10
213.0
 20
476.0
 30
0.0
  0
VERTEX
  8
LINES
 10
213.0
 20
477.0
 30
0.0
  0
VERTEX
  8
LINES
 10
213.0
 20
478.0
 30
0.0
  0
VERTEX
  8
LINES
 10
213.0
 20
479.0
 30
0.0
  0
VERTEX
  8
LINES
 10
213.0
 20
480.0
 30
0.0
  0
VERTEX
  8
LINES
 10
213.0
 20
481.0
 30
0.0
  0
VERTEX
  8
LINES
 10
213.0
 20
482.0
 30
0.0
  0
VERTEX
  8
LINES
 10
213.0
 20
483.0
 30
0.0
  0
VERTEX
  8
LINES
 10
213.0
 20
484.0
 30
0.0
  0
VERTEX
  8
LINES
 10
213.0
 20
485.0
 30
0.0
  0
VERTEX
  8
LINES
 10
213.0
 20
486.0
 30
0.0
  0
VERTEX
  8
LINES
 10
213.0
 20
487.0
 30
0.0
  0
VERTEX
  8
LINES
 10
213.0
 20
488.0
 30
0.0
  0
VERTEX
  8
LINES
 10
213.0
 20
489.0
 30
0.0
  0
VERTEX
  8
LINES
 10
212.0
 20
490.0
 30
0.0
  0
VERTEX
  8
LINES
 10
212.0
 20
491.0
 30
0.0
  0
VERTEX
  8
LINES
 10
212.0
 20
492.0
 30
0.0
  0
VERTEX
  8
LINES
 10
212.0
 20
493.0
 30
0.0
  0
VERTEX
  8
LINES
 10
212.0
 20
494.0
 30
0.0
  0
VERTEX
  8
LINES
 10
212.0
 20
495.0
 30
0.0
  0
VERTEX
  8
LINES
 10
212.0
 20
496.0
 30
0.0
  0
VERTEX
  8
LINES
 10
212.0
 20
497.0
 30
0.0
  0
VERTEX
  8
LINES
 10
212.0
 20
498.0
 30
0.0
  0
VERTEX
  8
LINES
 10
212.0
 20
499.0
 30
0.0
  0
VERTEX
  8
LINES
 10
212.0
 20
500.0
 30
0.0
  0
VERTEX
  8
LINES
 10
212.0
 20
501.0
 30
0.0
  0
VERTEX
  8
LINES
 10
212.0
 20
502.0
 30
0.0
  0
VERTEX
  8
LINES
 10
212.0
 20
503.0
 30
0.0
  0
VERTEX
  8
LINES
 10
211.0
 20
504.0
 30
0.0
  0
VERTEX
  8
LINES
 10
211.0
 20
505.0
 30
0.0
  0
VERTEX
  8
LINES
 10
211.0
 20
506.0
 30
0.0
  0
VERTEX
  8
LINES
 10
211.0
 20
507.0
 30
0.0
  0
VERTEX
  8
LINES
 10
211.0
 20
508.0
 30
0.0
  0
VERTEX
  8
LINES
 10
211.0
 20
509.0
 30
0.0
  0
VERTEX
  8
LINES
 10
211.0
 20
510.0
 30
0.0
  0
VERTEX
  8
LINES
 10
211.0
 20
511.0
 30
0.0
  0
VERTEX
  8
LINES
 10
211.0
 20
512.0
 30
0.0
  0
VERTEX
  8
LINES
 10
211.0
 20
513.0
 30
0.0
  0
VERTEX
  8
LINES
 10
210.0
 20
514.0
 30
0.0
  0
VERTEX
  8
LINES
 10
210.0
 20
515.0
 30
0.0
  0
VERTEX
  8
LINES
 10
210.0
 20
516.0
 30
0.0
  0
VERTEX
  8
LINES
 10
210.0
 20
517.0
 30
0.0
  0
VERTEX
  8
LINES
 10
210.0
 20
518.0
 30
0.0
  0
VERTEX
  8
LINES
 10
210.0
 20
519.0
 30
0.0
  0
VERTEX
  8
LINES
 10
210.0
 20
520.0
 30
0.0
  0
VERTEX
  8
LINES
 10
210.0
 20
521.0
 30
0.0
  0
VERTEX
  8
LINES
 10
209.0
 20
522.0
 30
0.0
  0
VERTEX
  8
LINES
 10
209.0
 20
523.0
 30
0.0
  0
VERTEX
  8
LINES
 10
209.0
 20
524.0
 30
0.0
  0
VERTEX
  8
LINES
 10
209.0
 20
525.0
 30
0.0
  0
VERTEX
  8
LINES
 10
209.0
 20
526.0
 30
0.0
  0
VERTEX
  8
LINES
 10
209.0
 20
527.0
 30
0.0
  0
VERTEX
  8
LINES
 10
209.0
 20
528.0
 30
0.0
  0
VERTEX
  8
LINES
 10
208.0
 20
529.0
 30
0.0
  0
VERTEX
  8
LINES
 10
208.0
 20
530.0
 30
0.0
  0
VERTEX
  8
LINES
 10
208.0
 20
531.0
 30
0.0
  0
VERTEX
  8
LINES
 10
208.0
 20
532.0
 30
0.0
  0
VERTEX
  8
LINES
 10
208.0
 20
533.0
 30
0.0
  0
VERTEX
  8
LINES
 10
208.0
 20
534.0
 30
0.0
  0
VERTEX
  8
LINES
 10
207.0
 20
535.0
 30
0.0
  0
VERTEX
  8
LINES
 10
207.0
 20
536.0
 30
0.0
  0
VERTEX
  8
LINES
 10
207.0
 20
537.0
 30
0.0
  0
VERTEX
  8
LINES
 10
207.0
 20
538.0
 30
0.0
  0
VERTEX
  8
LINES
 10
207.0
 20
539.0
 30
0.0
  0
VERTEX
  8
LINES
 10
207.0
 20
540.0
 30
0.0
  0
VERTEX
  8
LINES
 10
206.0
 20
541.0
 30
0.0
  0
VERTEX
  8
LINES
 10
206.0
 20
542.0
 30
0.0
  0
VERTEX
  8
LINES
 10
206.0
 20
543.0
 30
0.0
  0
VERTEX
  8
LINES
 10
206.0
 20
544.0
 30
0.0
  0
VERTEX
  8
LINES
 10
206.0
 20
545.0
 30
0.0
  0
VERTEX
  8
LINES
 10
205.0
 20
546.0
 30
0.0
  0
VERTEX
  8
LINES
 10
205.0
 20
547.0
 30
0.0
  0
VERTEX
  8
LINES
 10
205.0
 20
548.0
 30
0.0
  0
VERTEX
  8
LINES
 10
205.0
 20
549.0
 30
0.0
  0
VERTEX
  8
LINES
 10
205.0
 20
550.0
 30
0.0
  0
VERTEX
  8
LINES
 10
204.0
 20
551.0
 30
0.0
  0
VERTEX
  8
LINES
 10
204.0
 20
552.0
 30
0.0
  0
VERTEX
  8
LINES
 10
204.0
 20
553.0
 30
0.0
  0
VERTEX
  8
LINES
 10
204.0
 20
554.0
 30
0.0
  0
VERTEX
  8
LINES
 10
204.0
 20
555.0
 30
0.0
  0
VERTEX
  8
LINES
 10
203.0
 20
556.0
 30
0.0
  0
VERTEX
  8
LINES
 10
203.0
 20
557.0
 30
0.0
  0
VERTEX
  8
LINES
 10
203.0
 20
558.0
 30
0.0
  0
VERTEX
  8
LINES
 10
203.0
 20
559.0
 30
0.0
  0
VERTEX
  8
LINES
 10
202.0
 20
560.0
 30
0.0
  0
VERTEX
  8
LINES
 10
202.0
 20
561.0
 30
0.0
  0
VERTEX
  8
LINES
 10
202.0
 20
562.0
 30
0.0
  0
VERTEX
  8
LINES
 10
202.0
 20
563.0
 30
0.0
  0
VERTEX
  8
LINES
 10
201.0
 20
564.0
 30
0.0
  0
VERTEX
  8
LINES
 10
201.0
 20
565.0
 30
0.0
  0
VERTEX
  8
LINES
 10
201.0
 20
566.0
 30
0.0
  0
VERTEX
  8
LINES
 10
201.0
 20
567.0
 30
0.0
  0
VERTEX
  8
LINES
 10
200.0
 20
568.0
 30
0.0
  0
VERTEX
  8
LINES
 10
200.0
 20
569.0
 30
0.0
  0
VERTEX
  8
LINES
 10
200.0
 20
570.0
 30
0.0
  0
VERTEX
  8
LINES
 10
200.0
 20
571.0
 30
0.0
  0
VERTEX
  8
LINES
 10
199.0
 20
572.0
 30
0.0
  0
VERTEX
  8
LINES
 10
199.0
 20
573.0
 30
0.0
  0
VERTEX
  8
LINES
 10
199.0
 20
574.0
 30
0.0
  0
VERTEX
  8
LINES
 10
199.0
 20
575.0
 30
0.0
  0
VERTEX
  8
LINES
 10
198.0
 20
576.0
 30
0.0
  0
VERTEX
  8
LINES
 10
198.0
 20
577.0
 30
0.0
  0
VERTEX
  8
LINES
 10
198.0
 20
578.0
 30
0.0
  0
VERTEX
  8
LINES
 10
198.0
 20
579.0
 30
0.0
  0
VERTEX
  8
LINES
 10
197.0
 20
580.0
 30
0.0
  0
VERTEX
  8
LINES
 10
197.0
 20
581.0
 30
0.0
  0
VERTEX
  8
LINES
 10
197.0
 20
582.0
 30
0.0
  0
VERTEX
  8
LINES
 10
196.0
 20
583.0
 30
0.0
  0
VERTEX
  8
LINES
 10
196.0
 20
584.0
 30
0.0
  0
VERTEX
  8
LINES
 10
196.0
 20
585.0
 30
0.0
  0
VERTEX
  8
LINES
 10
195.0
 20
586.0
 30
0.0
  0
VERTEX
  8
LINES
 10
195.0
 20
587.0
 30
0.0
  0
VERTEX
  8
LINES
 10
195.0
 20
588.0
 30
0.0
  0
VERTEX
  8
LINES
 10
195.0
 20
589.0
 30
0.0
  0
VERTEX
  8
LINES
 10
194.0
 20
590.0
 30
0.0
  0
VERTEX
  8
LINES
 10
194.0
 20
591.0
 30
0.0
  0
VERTEX
  8
LINES
 10
194.0
 20
592.0
 30
0.0
  0
VERTEX
  8
LINES
 10
193.0
 20
593.0
 30
0.0
  0
SEQEND
  0
POLYLINE
  8
LINES
 66
1
 10
0.0
 20
0.0
 30
0.0
 70
8
  0
VERTEX
  8
LINES
 10
190.0
 20
589.0
 30
0.0
  0
VERTEX
  8
LINES
 10
191.0
 20
590.0
 30
0.0
  0
VERTEX
  8
LINES
 10
191.0
 20
591.0
 30
0.0
  0
VERTEX
  8
LINES
 10
191.0
 20
592.0
 30
0.0
  0
VERTEX
  8
LINES
 10
191.0
 20
593.0
 30
0.0
  0
VERTEX
  8
LINES
 10
191.0
 20
594.0
 30
0.0
  0
VERTEX
  8
LINES
 10
191.0
 20
595.0
 30
0.0
  0
VERTEX
  8
LINES
 10
191.0
 20
596.0
 30
0.0
  0
VERTEX
  8
LINES
 10
191.0
 20
597.0
 30
0.0
  0
VERTEX
  8
LINES
 10
191.0
 20
598.0
 30
0.0
  0
VERTEX
  8
LINES
 10
191.0
 20
599.0
 30
0.0
  0
VERTEX
  8
LINES
 10
192.0
 20
600.0
 30
0.0
  0
VERTEX
  8
LINES
 10
192.0
 20
601.0
 30
0.0
  0
VERTEX
  8
LINES
 10
192.0
 20
602.0
 30
0.0
  0
VERTEX
  8
LINES
 10
192.0
 20
603.0
 30
0.0
  0
VERTEX
  8
LINES
 10
192.0
 20
604.0
 30
0.0
  0
VERTEX
  8
LINES
 10
192.0
 20
605.0
 30
0.0
  0
VERTEX
  8
LINES
 10
192.0
 20
606.0
 30
0.0
  0
VERTEX
  8
LINES
 10
192.0
 20
607.0
 30
0.0
  0
VERTEX
  8
LINES
 10
192.0
 20
608.0
 30
0.0
  0
VERTEX
  8
LINES
 10
192.0
 20
609.0
 30
0.0
  0
VERTEX
  8
LINES
 10
192.0
 20
610.0
 30
0.0
  0
VERTEX
  8
LINES
 10
193.0
 20
611.0
 30
0.0
  0
VERTEX
  8
LINES
 10
193.0
 20
612.0
 30
0.0
  0
VERTEX
  8
LINES
 10
193.0
 20
613.0
 30
0.0
  0
VERTEX
  8
LINES
 10
193.0
 20
614.0
 30
0.0
  0
VERTEX
  8
LINES
 10
193.0
 20
615.0
 30
0.0
  0
VERTEX
  8
LINES
 10
193.0
 20
616.0
 30
0.0
  0
VERTEX
  8
LINES
 10
193.0
 20
617.0
 30
0.0
  0
VERTEX
  8
LINES
 10
193.0
 20
618.0
 30
0.0
  0
VERTEX
  8
LINES
 10
193.0
 20
619.0
 30
0.0
  0
VERTEX
  8
LINES
 10
193.0
 20
620.0
 30
0.0
  0
VERTEX
  8
LINES
 10
193.0
 20
621.0
 30
0.0
  0
VERTEX
  8
LINES
 10
193.0
 20
622.0
 30
0.0
  0
VERTEX
  8
LINES
 10
193.0
 20
623.0
 30
0.0
  0
VERTEX
  8
LINES
 10
193.0
 20
624.0
 30
0.0
  0
VERTEX
  8
LINES
 10
193.0
 20
625.0
 30
0.0
  0
VERTEX
  8
LINES
 10
193.0
 20
626.0
 30
0.0
  0
VERTEX
  8
LINES
 10
194.0
 20
627.0
 30
0.0
  0
VERTEX
  8
LINES
 10
194.0
 20
628.0
 30
0.0
  0
VERTEX
  8
LINES
 10
194.0
 20
629.0
 30
0.0
  0
VERTEX
  8
LINES
 10
194.0
 20
630.0
 30
0.0
  0
VERTEX
  8
LINES
 10
194.0
 20
631.0
 30
0.0
  0
VERTEX
  8
LINES
 10
194.0
 20
632.0
 30
0.0
  0
VERTEX
  8
LINES
 10
194.0
 20
633.0
 30
0.0
  0
VERTEX
  8
LINES
 10
194.0
 20
634.0
 30
0.0
  0
VERTEX
  8
LINES
 10
194.0
 20
635.0
 30
0.0
  0
VERTEX
  8
LINES
 10
194.0
 20
636.0
 30
0.0
  0
VERTEX
  8
LINES
 10
194.0
 20
637.0
 30
0.0
  0
VERTEX
  8
LINES
 10
194.0
 20
638.0
 30
0.0
  0
VERTEX
  8
LINES
 10
194.0
 20
639.0
 30
0.0
  0
VERTEX
  8
LINES
 10
194.0
 20
640.0
 30
0.0
  0
VERTEX
  8
LINES
 10
194.0
 20
641.0
 30
0.0
  0
VERTEX
  8
LINES
 10
194.0
 20
642.0
 30
0.0
  0
VERTEX
  8
LINES
 10
194.0
 20
643.0
 30
0.0
  0
VERTEX
  8
LINES
 10
194.0
 20
644.0
 30
0.0
  0
VERTEX
  8
LINES
 10
194.0
 20
645.0
 30
0.0
  0
VERTEX
  8
LINES
 10
194.0
 20
646.0
 30
0.0
  0
VERTEX
  8
LINES
 10
194.0
 20
647.0
 30
0.0
  0
VERTEX
  8
LINES
 10
194.0
 20
648.0
 30
0.0
  0
VERTEX
  8
LINES
 10
194.0
 20
649.0
 30
0.0
  0
VERTEX
  8
LINES
 10
194.0
 20
650.0
 30
0.0
  0
VERTEX
  8
LINES
 10
194.0
 20
651.0
 30
0.0
  0
VERTEX
  8
LINES
 10
194.0
 20
652.0
 30
0.0
  0
VERTEX
  8
LINES
 10
194.0
 20
653.0
 30
0.0
  0
VERTEX
  8
LINES
 10
194.0
 20
654.0
 30
0.0
  0
VERTEX
  8
LINES
 10
194.0
 20
655.0
 30
0.0
  0
VERTEX
  8
LINES
 10
194.0
 20
656.0
 30
0.0
  0
VERTEX
  8
LINES
 10
194.0
 20
657.0
 30
0.0
  0
VERTEX
  8
LINES
 10
194.0
 20
658.0
 30
0.0
  0
VERTEX
  8
LINES
 10
194.0
 20
659.0
 30
0.0
  0
VERTEX
  8
LINES
 10
194.0
 20
660.0
 30
0.0
  0
VERTEX
  8
LINES
 10
194.0
 20
661.0
 30
0.0
  0
VERTEX
  8
LINES
 10
194.0
 20
662.0
 30
0.0
  0
VERTEX
  8
LINES
 10
194.0
 20
663.0
 30
0.0
  0
VERTEX
  8
LINES
 10
194.0
 20
664.0
 30
0.0
  0
VERTEX
  8
LINES
 10
194.0
 20
665.0
 30
0.0
  0
VERTEX
  8
LINES
 10
194.0
 20
666.0
 30
0.0
  0
VERTEX
  8
LINES
 10
194.0
 20
667.0
 30
0.0
  0
SEQEND
  0
POLYLINE
  8
LINES
 66
1
 10
0.0
 20
0.0
 30
0.0
 70
8
  0
VERTEX
  8
LINES
 10
254.0
 20
390.0
 30
0.0
  0
VERTEX
  8
LINES
 10
255.0
 20
391.0
 30
0.0
  0
VERTEX
  8
LINES
 10
255.0
 20
392.0
 30
0.0
  0
VERTEX
  8
LINES
 10
255.0
 20
393.0
 30
0.0
  0
VERTEX
  8
LINES
 10
255.0
 20
394.0
 30
0.0
  0
VERTEX
  8
LINES
 10
256.0
 20
395.0
 30
0.0
  0
VERTEX
  8
LINES
 10
256.0
 20
396.0
 30
0.0
  0
VERTEX
  8
LINES
 10
256.0
 20
397.0
 30
0.0
  0
VERTEX
  8
LINES
 10
256.0
 20
398.0
 30
0.0
  0
VERTEX
  8
LINES
 10
256.0
 20
399.0
 30
0.0
  0
VERTEX
  8
LINES
 10
257.0
 20
400.0
 30
0.0
  0
VERTEX
  8
LINES
 10
257.0
 20
401.0
 30
0.0
  0
VERTEX
  8
LINES
 10
257.0
 20
402.0
 30
0.0
  0
VERTEX
  8
LINES
 10
257.0
 20
403.0
 30
0.0
  0
VERTEX
  8
LINES
 10
257.0
 20
404.0
 30
0.0
  0
VERTEX
  8
LINES
 10
258.0
 20
405.0
 30
0.0
  0
VERTEX
  8
LINES
 10
258.0
 20
406.0
 30
0.0
  0
VERTEX
  8
LINES
 10
258.0
 20
407.0
 30
0.0
  0
VERTEX
  8
LINES
 10
258.0
 20
408.0
 30
0.0
  0
VERTEX
  8
LINES
 10
258.0
 20
409.0
 30
0.0
  0
VERTEX
  8
LINES
 10
259.0
 20
410.0
 30
0.0
  0
VERTEX
  8
LINES
 10
259.0
 20
411.0
 30
0.0
  0
VERTEX
  8
LINES
 10
259.0
 20
412.0
 30
0.0
  0
VERTEX
  8
LINES
 10
259.0
 20
413.0
 30
0.0
  0
VERTEX
  8
LINES
 10
259.0
 20
414.0
 30
0.0
  0
VERTEX
  8
LINES
 10
259.0
 20
415.0
 30
0.0
  0
VERTEX
  8
LINES
 10
260.0
 20
416.0
 30
0.0
  0
VERTEX
  8
LINES
 10
260.0
 20
417.0
 30
0.0
  0
VERTEX
  8
LINES
 10
260.0
 20
418.0
 30
0.0
  0
VERTEX
  8
LINES
 10
260.0
 20
419.0
 30
0.0
  0
VERTEX
  8
LINES
 10
260.0
 20
420.0
 30
0.0
  0
VERTEX
  8
LINES
 10
260.0
 20
421.0
 30
0.0
  0
VERTEX
  8
LINES
 10
261.0
 20
422.0
 30
0.0
  0
VERTEX
  8
LINES
 10
261.0
 20
423.0
 30
0.0
  0
VERTEX
  8
LINES
 10
261.0
 20
424.0
 30
0.0
  0
VERTEX
  8
LINES
 10
261.0
 20
425.0
 30
0.0
  0
VERTEX
  8
LINES
 10
261.0
 20
426.0
 30
0.0
  0
VERTEX
  8
LINES
 10
261.0
 20
427.0
 30
0.0
  0
VERTEX
  8
LINES
 10
261.0
 20
428.0
 30
0.0
  0
VERTEX
  8
LINES
 10
262.0
 20
429.0
 30
0.0
  0
VERTEX
  8
LINES
 10
262.0
 20
430.0
 30
0.0
  0
VERTEX
  8
LINES
 10
262.0
 20
431.0
 30
0.0
  0
VERTEX
  8
LINES
 10
262.0
 20
432.0
 30
0.0
  0
VERTEX
  8
LINES
 10
262.0
 20
433.0
 30
0.0
  0
VERTEX
  8
LINES
 10
262.0
 20
434.0
 30
0.0
  0
VERTEX
  8
LINES
 10
262.0
 20
435.0
 30
0.0
  0
VERTEX
  8
LINES
 10
262.0
 20
436.0
 30
0.0
  0
VERTEX
  8
LINES
 10
263.0
 20
437.0
 30
0.0
  0
VERTEX
  8
LINES
 10
263.0
 20
438.0
 30
0.0
  0
VERTEX
  8
LINES
 10
263.0
 20
439.0
 30
0.0
  0
VERTEX
  8
LINES
 10
263.0
 20
440.0
 30
0.0
  0
VERTEX
  8
LINES
 10
263.0
 20
441.0
 30
0.0
  0
VERTEX
  8
LINES
 10
263.0
 20
442.0
 30
0.0
  0
VERTEX
  8
LINES
 10
263.0
 20
443.0
 30
0.0
  0
VERTEX
  8
LINES
 10
263.0
 20
444.0
 30
0.0
  0
VERTEX
  8
LINES
 10
263.0
 20
445.0
 30
0.0
  0
VERTEX
  8
LINES
 10
263.0
 20
446.0
 30
0.0
  0
VERTEX
  8
LINES
 10
264.0
 20
447.0
 30
0.0
  0
VERTEX
  8
LINES
 10
264.0
 20
448.0
 30
0.0
  0
VERTEX
  8
LINES
 10
264.0
 20
449.0
 30
0.0
  0
VERTEX
  8
LINES
 10
264.0
 20
450.0
 30
0.0
  0
VERTEX
  8
LINES
 10
264.0
 20
451.0
 30
0.0
  0
VERTEX
  8
LINES
 10
264.0
 20
452.0
 30
0.0
  0
VERTEX
  8
LINES
 10
264.0
 20
453.0
 30
0.0
  0
VERTEX
  8
LINES
 10
264.0
 20
454.0
 30
0.0
  0
VERTEX
  8
LINES
 10
264.0
 20
455.0
 30
0.0
  0
VERTEX
  8
LINES
 10
264.0
 20
456.0
 30
0.0
  0
VERTEX
  8
LINES
 10
264.0
 20
457.0
 30
0.0
  0
VERTEX
  8
LINES
 10
264.0
 20
458.0
 30
0.0
  0
VERTEX
  8
LINES
 10
264.0
 20
459.0
 30
0.0
  0
VERTEX
  8
LINES
 10
265.0
 20
460.0
 30
0.0
  0
VERTEX
  8
LINES
 10
265.0
 20
461.0
 30
0.0
  0
VERTEX
  8
LINES
 10
265.0
 20
462.0
 30
0.0
  0
VERTEX
  8
LINES
 10
265.0
 20
463.0
 30
0.0
  0
VERTEX
  8
LINES
 10
265.0
 20
464.0
 30
0.0
  0
VERTEX
  8
LINES
 10
265.0
 20
465.0
 30
0.0
  0
VERTEX
  8
LINES
 10
265.0
 20
466.0
 30
0.0
  0
VERTEX
  8
LINES
 10
265.0
 20
467.0
 30
0.0
  0
VERTEX
  8
LINES
 10
265.0
 20
468.0
 30
0.0
  0
VERTEX
  8
LINES
 10
265.0
 20
469.0
 30
0.0
  0
VERTEX
  8
LINES
 10
265.0
 20
470.0
 30
0.0
  0
VERTEX
  8
LINES
 10
265.0
 20
471.0
 30
0.0
  0
VERTEX
  8
LINES
 10
265.0
 20
472.0
 30
0.0
  0
VERTEX
  8
LINES
 10
265.0
 20
473.0
 30
0.0
  0
VERTEX
  8
LINES
 10
265.0
 20
474.0
 30
0.0
  0
VERTEX
  8
LINES
 10
265.0
 20
475.0
 30
0.0
  0
VERTEX
  8
LINES
 10
265.0
 20
476.0
 30
0.0
  0
VERTEX
  8
LINES
 10
265.0
 20
477.0
 30
0.0
  0
VERTEX
  8
LINES
 10
265.0
 20
478.0
 30
0.0
  0
VERTEX
  8
LINES
 10
265.0
 20
479.0
 30
0.0
  0
VERTEX
  8
LINES
 10
265.0
 20
480.0
 30
0.0
  0
VERTEX
  8
LINES
 10
265.0
 20
481.0
 30
0.0
  0
VERTEX
  8
LINES
 10
265.0
 20
482.0
 30
0.0
  0
VERTEX
  8
LINES
 10
265.0
 20
483.0
 30
0.0
  0
VERTEX
  8
LINES
 10
265.0
 20
484.0
 30
0.0
  0
VERTEX
  8
LINES
 10
265.0
 20
485.0
 30
0.0
  0
VERTEX
  8
LINES
 10
265.0
 20
486.0
 30
0.0
  0
VERTEX
  8
LINES
 10
265.0
 20
487.0
 30
0.0
  0
VERTEX
  8
LINES
 10
265.0
 20
488.0
 30
0.0
  0
VERTEX
  8
LINES
 10
265.0
 20
489.0
 30
0.0
  0
VERTEX
  8
LINES
 10
265.0
 20
490.0
 30
0.0
  0
VERTEX
  8
LINES
 10
265.0
 20
491.0
 30
0.0
  0
VERTEX
  8
LINES
 10
265.0
 20
492.0
 30
0.0
  0
VERTEX
  8
LINES
 10
265.0
 20
493.0
 30
0.0
  0
VERTEX
  8
LINES
 10
265.0
 20
494.0
 30
0.0
  0
VERTEX
  8
LINES
 10
265.0
 20
495.0
 30
0.0
  0
VERTEX
  8
LINES
 10
265.0
 20
496.0
 30
0.0
  0
VERTEX
  8
LINES
 10
265.0
 20
497.0
 30
0.0
  0
VERTEX
  8
LINES
 10
265.0
 20
498.0
 30
0.0
  0
VERTEX
  8
LINES
 10
265.0
 20
499.0
 30
0.0
  0
VERTEX
  8
LINES
 10
265.0
 20
500.0
 30
0.0
  0
VERTEX
  8
LINES
 10
265.0
 20
501.0
 30
0.0
  0
VERTEX
  8
LINES
 10
265.0
 20
502.0
 30
0.0
  0
VERTEX
  8
LINES
 10
264.0
 20
503.0
 30
0.0
  0
VERTEX
  8
LINES
 10
264.0
 20
504.0
 30
0.0
  0
VERTEX
  8
LINES
 10
264.0
 20
505.0
 30
0.0
  0
VERTEX
  8
LINES
 10
264.0
 20
506.0
 30
0.0
  0
VERTEX
  8
LINES
 10
264.0
 20
507.0
 30
0.0
  0
VERTEX
  8
LINES
 10
264.0
 20
508.0
 30
0.0
  0
VERTEX
  8
LINES
 10
264.0
 20
509.0
 30
0.0
  0
VERTEX
  8
LINES
 10
264.0
 20
510.0
 30
0.0
  0
VERTEX
  8
LINES
 10
264.0
 20
511.0
 30
0.0
  0
VERTEX
  8
LINES
 10
264.0
 20
512.0
 30
0.0
  0
VERTEX
  8
LINES
 10
264.0
 20
513.0
 30
0.0
  0
VERTEX
  8
LINES
 10
264.0
 20
514.0
 30
0.0
  0
VERTEX
  8
LINES
 10
264.0
 20
515.0
 30
0.0
  0
VERTEX
  8
LINES
 10
264.0
 20
516.0
 30
0.0
  0
VERTEX
  8
LINES
 10
263.0
 20
517.0
 30
0.0
  0
VERTEX
  8
LINES
 10
263.0
 20
518.0
 30
0.0
  0
VERTEX
  8
LINES
 10
263.0
 20
519.0
 30
0.0
  0
VERTEX
  8
LINES
 10
263.0
 20
520.0
 30
0.0
  0
VERTEX
  8
LINES
 10
263.0
 20
521.0
 30
0.0
  0
VERTEX
  8
LINES
 10
263.0
 20
522.0
 30
0.0
  0
VERTEX
  8
LINES
 10
263.0
 20
523.0
 30
0.0
  0
VERTEX
  8
LINES
 10
263.0
 20
524.0
 30
0.0
  0
VERTEX
  8
LINES
 10
263.0
 20
525.0
 30
0.0
  0
VERTEX
  8
LINES
 10
263.0
 20
526.0
 30
0.0
  0
VERTEX
  8
LINES
 10
262.0
 20
527.0
 30
0.0
  0
VERTEX
  8
LINES
 10
262.0
 20
528.0
 30
0.0
  0
VERTEX
  8
LINES
 10
262.0
 20
529.0
 30
0.0
  0
VERTEX
  8
LINES
 10
262.0
 20
530.0
 30
0.0
  0
VERTEX
  8
LINES
 10
262.0
 20
531.0
 30
0.0
  0
VERTEX
  8
LINES
 10
262.0
 20
532.0
 30
0.0
  0
VERTEX
  8
LINES
 10
262.0
 20
533.0
 30
0.0
  0
VERTEX
  8
LINES
 10
262.0
 20
534.0
 30
0.0
  0
VERTEX
  8
LINES
 10
261.0
 20
535.0
 30
0.0
  0
VERTEX
  8
LINES
 10
261.0
 20
536.0
 30
0.0
  0
VERTEX
  8
LINES
 10
261.0
 20
537.0
 30
0.0
  0
VERTEX
  8
LINES
 10
261.0
 20
538.0
 30
0.0
  0
VERTEX
  8
LINES
 10
261.0
 20
539.0
 30
0.0
  0
VERTEX
  8
LINES
 10
261.0
 20
540.0
 30
0.0
  0
VERTEX
  8
LINES
 10
261.0
 20
541.0
 30
0.0
  0
VERTEX
  8
LINES
 10
260.0
 20
542.0
 30
0.0
  0
VERTEX
  8
LINES
 10
260.0
 20
543.0
 30
0.0
  0
VERTEX
  8
LINES
 10
260.0
 20
544.0
 30
0.0
  0
VERTEX
  8
LINES
 10
260.0
 20
545.0
 30
0.0
  0
VERTEX
  8
LINES
 10
260.0
 20
546.0
 30
0.0
  0
VERTEX
  8
LINES
 10
260.0
 20
547.0
 30
0.0
  0
VERTEX
  8
LINES
 10
259.0
 20
548.0
 30
0.0
  0
VERTEX
  8
LINES
 10
259.0
 20
549.0
 30
0.0
  0
VERTEX
  8
LINES
 10
259.0
 20
550.0
 30
0.0
  0
VERTEX
  8
LINES
 10
259.0
 20
551.0
 30
0.0
  0
VERTEX
  8
LINES
 10
259.0
 20
552.0
 30
0.0
  0
VERTEX
  8
LINES
 10
259.0
 20
553.0
 30
0.0
  0
VERTEX
  8
LINES
 10
258.0
 20
554.0
 30
0.0
  0
VERTEX
  8
LINES
 10
258.0
 20
555.0
 30
0.0
  0
VERTEX
  8
LINES
 10
258.0
 20
556.0
 30
0.0
  0
VERTEX
  8
LINES
 10
258.0
 20
557.0
 30
0.0
  0
VERTEX
  8
LINES
 10
258.0
 20
558.0
 30
0.0
  0
VERTEX
  8
LINES
 10
257.0
 20
559.0
 30
0.0
  0
VERTEX
  8
LINES
 10
257.0
 20
560.0
 30
0.0
  0
VERTEX
  8
LINES
 10
257.0
 20
561.0
 30
0.0
  0
VERTEX
  8
LINES
 10
257.0
 20
562.0
 30
0.0
  0
VERTEX
  8
LINES
 10
257.0
 20
563.0
 30
0.0
  0
VERTEX
  8
LINES
 10
256.0
 20
564.0
 30
0.0
  0
VERTEX
  8
LINES
 10
256.0
 20
565.0
 30
0.0
  0
VERTEX
  8
LINES
 10
256.0
 20
566.0
 30
0.0
  0
VERTEX
  8
LINES
 10
256.0
 20
567.0
 30
0.0
  0
VERTEX
  8
LINES
 10
256.0
 20
568.0
 30
0.0
  0
VERTEX
  8
LINES
 10
255.0
 20
569.0
 30
0.0
  0
VERTEX
  8
LINES
 10
255.0
 20
570.0
 30
0.0
  0
VERTEX
  8
LINES
 10
255.0
 20
571.0
 30
0.0
  0
VERTEX
  8
LINES
 10
255.0
 20
572.0
 30
0.0
  0
VERTEX
  8
LINES
 10
254.0
 20
573.0
 30
0.0
  0
VERTEX
  8
LINES
 10
254.0
 20
574.0
 30
0.0
  0
VERTEX
  8
LINES
 10
254.0
 20
575.0
 30
0.0
  0
VERTEX
  8
LINES
 10
254.0
 20
576.0
 30
0.0
  0
VERTEX
  8
LINES
 10
253.0
 20
577.0
 30
0.0
  0
VERTEX
  8
LINES
 10
253.0
 20
578.0
 30
0.0
  0
SEQEND
  0
POLYLINE
  8
LINES
 66
1
 10
0.0
 20
0.0
 30
0.0
 70
8
  0
VERTEX
  8
LINES
 10
258.0
 20
598.0
 30
0.0
  0
VERTEX
  8
LINES
 10
259.0
 20
599.0
 30
0.0
  0
VERTEX
  8
LINES
 10
259.0
 20
600.0
 30
0.0
  0
VERTEX
  8
LINES
 10
259.0
 20
601.0
 30
0.0
  0
VERTEX
  8
LINES
 10
259.0
 20
602.0
 30
0.0
  0
VERTEX
  8
LINES
 10
259.0
 20
603.0
 30
0.0
  0
VERTEX
  8
LINES
 10
259.0
 20
604.0
 30
0.0
  0
VERTEX
  8
LINES
 10
259.0
 20
605.0
 30
0.0
  0
VERTEX
  8
LINES
 10
260.0
 20
606.0
 30
0.0
  0
VERTEX
  8
LINES
 10
260.0
 20
607.0
 30
0.0
  0
VERTEX
  8
LINES
 10
260.0
 20
608.0
 30
0.0
  0
VERTEX
  8
LINES
 10
260.0
 20
609.0
 30
0.0
  0
VERTEX
  8
LINES
 10
260.0
 20
610.0
 30
0.0
  0
VERTEX
  8
LINES
 10
260.0
 20
611.0
 30
0.0
  0
VERTEX
  8
LINES
 10
260.0
 20
612.0
 30
0.0
  0
VERTEX
  8
LINES
 10
261.0
 20
613.0
 30
0.0
  0
VERTEX
  8
LINES
 10
261.0
 20
614.0
 30
0.0
  0
VERTEX
  8
LINES
 10
261.0
 20
615.0
 30
0.0
  0
VERTEX
  8
LINES
 10
261.0
 20
616.0
 30
0.0
  0
VERTEX
  8
LINES
 10
261.0
 20
617.0
 30
0.0
  0
VERTEX
  8
LINES
 10
261.0
 20
618.0
 30
0.0
  0
VERTEX
  8
LINES
 10
261.0
 20
619.0
 30
0.0
  0
VERTEX
  8
LINES
 10
261.0
 20
620.0
 30
0.0
  0
VERTEX
  8
LINES
 10
262.0
 20
621.0
 30
0.0
  0
VERTEX
  8
LINES
 10
262.0
 20
622.0
 30
0.0
  0
VERTEX
  8
LINES
 10
262.0
 20
623.0
 30
0.0
  0
VERTEX
  8
LINES
 10
262.0
 20
624.0
 30
0.0
  0
VERTEX
  8
LINES
 10
262.0
 20
625.0
 30
0.0
  0
VERTEX
  8
LINES
 10
262.0
 20
626.0
 30
0.0
  0
VERTEX
  8
LINES
 10
262.0
 20
627.0
 30
0.0
  0
VERTEX
  8
LINES
 10
262.0
 20
628.0
 30
0.0
  0
VERTEX
  8
LINES
 10
263.0
 20
629.0
 30
0.0
  0
VERTEX
  8
LINES
 10
263.0
 20
630.0
 30
0.0
  0
VERTEX
  8
LINES
 10
263.0
 20
631.0
 30
0.0
  0
VERTEX
  8
LINES
 10
263.0
 20
632.0
 30
0.0
  0
VERTEX
  8
LINES
 10
263.0
 20
633.0
 30
0.0
  0
VERTEX
  8
LINES
 10
263.0
 20
634.0
 30
0.0
  0
VERTEX
  8
LINES
 10
263.0
 20
635.0
 30
0.0
  0
VERTEX
  8
LINES
 10
263.0
 20
636.0
 30
0.0
  0
VERTEX
  8
LINES
 10
263.0
 20
637.0
 30
0.0
  0
VERTEX
  8
LINES
 10
264.0
 20
638.0
 30
0.0
  0
VERTEX
  8
LINES
 10
264.0
 20
639.0
 30
0.0
  0
VERTEX
  8
LINES
 10
264.0
 20
640.0
 30
0.0
  0
VERTEX
  8
LINES
 10
264.0
 20
641.0
 30
0.0
  0
VERTEX
  8
LINES
 10
264.0
 20
642.0
 30
0.0
  0
VERTEX
  8
LINES
 10
264.0
 20
643.0
 30
0.0
  0
VERTEX
  8
LINES
 10
264.0
 20
644.0
 30
0.0
  0
VERTEX
  8
LINES
 10
264.0
 20
645.0
 30
0.0
  0
VERTEX
  8
LINES
 10
264.0
 20
646.0
 30
0.0
  0
VERTEX
  8
LINES
 10
264.0
 20
647.0
 30
0.0
  0
VERTEX
  8
LINES
 10
265.0
 20
648.0
 30
0.0
  0
VERTEX
  8
LINES
 10
265.0
 20
649.0
 30
0.0
  0
VERTEX
  8
LINES
 10
265.0
 20
650.0
 30
0.0
  0
VERTEX
  8
LINES
 10
265.0
 20
651.0
 30
0.0
  0
VERTEX
  8
LINES
 10
265.0
 20
652.0
 30
0.0
  0
VERTEX
  8
LINES
 10
265.0
 20
653.0
 30
0.0
  0
VERTEX
  8
LINES
 10
265.0
 20
654.0
 30
0.0
  0
VERTEX
  8
LINES
 10
265.0
 20
655.0
 30
0.0
  0
VERTEX
  8
LINES
 10
265.0
 20
656.0
 30
0.0
  0
VERTEX
  8
LINES
 10
265.0
 20
657.0
 30
0.0
  0
VERTEX
  8
LINES
 10
266.0
 20
658.0
 30
0.0
  0
VERTEX
  8
LINES
 10
266.0
 20
659.0
 30
0.0
  0
VERTEX
  8
LINES
 10
266.0
 20
660.0
 30
0.0
  0
VERTEX
  8
LINES
 10
266.0
 20
661.0
 30
0.0
  0
VERTEX
  8
LINES
 10
266.0
 20
662.0
 30
0.0
  0
VERTEX
  8
LINES
 10
266.0
 20
663.0
 30
0.0
  0
VERTEX
  8
LINES
 10
266.0
 20
664.0
 30
0.0
  0
VERTEX
  8
LINES
 10
266.0
 20
665.0
 30
0.0
  0
VERTEX
  8
LINES
 10
266.0
 20
666.0
 30
0.0
  0
SEQEND
  0
POLYLINE
  8
LINES
 66
1
 10
0.0
 20
0.0
 30
0.0
 70
8
  0
VERTEX
  8
LINES
 10
249.0
 20
590.0
 30
0.0
  0
VERTEX
  8
LINES
 10
249.0
 20
591.0
 30
0.0
  0
VERTEX
  8
LINES
 10
249.0
 20
592.0
 30
0.0
  0
VERTEX
  8
LINES
 10
249.0
 20
593.0
 30
0.0
  0
VERTEX
  8
LINES
 10
248.0
 20
594.0
 30
0.0
  0
VERTEX
  8
LINES
 10
248.0
 20
595.0
 30
0.0
  0
VERTEX
  8
LINES
 10
248.0
 20
596.0
 30
0.0
  0
VERTEX
  8
LINES
 10
248.0
 20
597.0
 30
0.0
  0
VERTEX
  8
LINES
 10
247.0
 20
598.0
 30
0.0
  0
VERTEX
  8
LINES
 10
247.0
 20
599.0
 30
0.0
  0
VERTEX
  8
LINES
 10
247.0
 20
600.0
 30
0.0
  0
VERTEX
  8
LINES
 10
247.0
 20
601.0
 30
0.0
  0
VERTEX
  8
LINES
 10
247.0
 20
602.0
 30
0.0
  0
VERTEX
  8
LINES
 10
246.0
 20
603.0
 30
0.0
  0
VERTEX
  8
LINES
 10
246.0
 20
604.0
 30
0.0
  0
VERTEX
  8
LINES
 10
246.0
 20
605.0
 30
0.0
  0
VERTEX
  8
LINES
 10
246.0
 20
606.0
 30
0.0
  0
VERTEX
  8
LINES
 10
246.0
 20
607.0
 30
0.0
  0
VERTEX
  8
LINES
 10
245.0
 20
608.0
 30
0.0
  0
VERTEX
  8
LINES
 10
245.0
 20
609.0
 30
0.0
  0
VERTEX
  8
LINES
 10
245.0
 20
610.0
 30
0.0
  0
VERTEX
  8
LINES
 10
245.0
 20
611.0
 30
0.0
  0
VERTEX
  8
LINES
 10
245.0
 20
612.0
 30
0.0
  0
VERTEX
  8
LINES
 10
244.0
 20
613.0
 30
0.0
  0
VERTEX
  8
LINES
 10
244.0
 20
614.0
 30
0.0
  0
VERTEX
  8
LINES
 10
244.0
 20
615.0
 30
0.0
  0
VERTEX
  8
LINES
 10
244.0
 20
616.0
 30
0.0
  0
VERTEX
  8
LINES
 10
243.0
 20
617.0
 30
0.0
  0
VERTEX
  8
LINES
 10
243.0
 20
618.0
 30
0.0
  0
VERTEX
  8
LINES
 10
243.0
 20
619.0
 30
0.0
  0
VERTEX
  8
LINES
 10
243.0
 20
620.0
 30
0.0
  0
VERTEX
  8
LINES
 10
243.0
 20
621.0
 30
0.0
  0
VERTEX
  8
LINES
 10
242.0
 20
622.0
 30
0.0
  0
VERTEX
  8
LINES
 10
242.0
 20
623.0
 30
0.0
  0
VERTEX
  8
LINES
 10
242.0
 20
624.0
 30
0.0
  0
VERTEX
  8
LINES
 10
242.0
 20
625.0
 30
0.0
  0
VERTEX
  8
LINES
 10
242.0
 20
626.0
 30
0.0
  0
VERTEX
  8
LINES
 10
241.0
 20
627.0
 30
0.0
  0
VERTEX
  8
LINES
 10
241.0
 20
628.0
 30
0.0
  0
SEQEND
  0
POLYLINE
  8
LINES
 66
1
 10
0.0
 20
0.0
 30
0.0
 70
8
  0
VERTEX
  8
LINES
 10
381.0
 20
394.0
 30
0.0
  0
VERTEX
  8
LINES
 10
381.0
 20
395.0
 30
0.0
  0
VERTEX
  8
LINES
 10
381.0
 20
396.0
 30
0.0
  0
VERTEX
  8
LINES
 10
381.0
 20
397.0
 30
0.0
  0
VERTEX
  8
LINES
 10
380.0
 20
398.0
 30
0.0
  0
VERTEX
  8
LINES
 10
380.0
 20
399.0
 30
0.0
  0
VERTEX
  8
LINES
 10
380.0
 20
400.0
 30
0.0
  0
VERTEX
  8
LINES
 10
379.0
 20
401.0
 30
0.0
  0
VERTEX
  8
LINES
 10
379.0
 20
402.0
 30
0.0
  0
VERTEX
  8
LINES
 10
379.0
 20
403.0
 30
0.0
  0
VERTEX
  8
LINES
 10
379.0
 20
404.0
 30
0.0
  0
VERTEX
  8
LINES
 10
378.0
 20
405.0
 30
0.0
  0
VERTEX
  8
LINES
 10
378.0
 20
406.0
 30
0.0
  0
VERTEX
  8
LINES
 10
378.0
 20
407.0
 30
0.0
  0
VERTEX
  8
LINES
 10
378.0
 20
408.0
 30
0.0
  0
VERTEX
  8
LINES
 10
377.0
 20
409.0
 30
0.0
  0
VERTEX
  8
LINES
 10
377.0
 20
410.0
 30
0.0
  0
VERTEX
  8
LINES
 10
377.0
 20
411.0
 30
0.0
  0
VERTEX
  8
LINES
 10
377.0
 20
412.0
 30
0.0
  0
VERTEX
  8
LINES
 10
376.0
 20
413.0
 30
0.0
  0
VERTEX
  8
LINES
 10
376.0
 20
414.0
 30
0.0
  0
VERTEX
  8
LINES
 10
376.0
 20
415.0
 30
0.0
  0
VERTEX
  8
LINES
 10
376.0
 20
416.0
 30
0.0
  0
VERTEX
  8
LINES
 10
375.0
 20
417.0
 30
0.0
  0
VERTEX
  8
LINES
 10
375.0
 20
418.0
 30
0.0
  0
VERTEX
  8
LINES
 10
375.0
 20
419.0
 30
0.0
  0
VERTEX
  8
LINES
 10
375.0
 20
420.0
 30
0.0
  0
VERTEX
  8
LINES
 10
375.0
 20
421.0
 30
0.0
  0
VERTEX
  8
LINES
 10
374.0
 20
422.0
 30
0.0
  0
VERTEX
  8
LINES
 10
374.0
 20
423.0
 30
0.0
  0
VERTEX
  8
LINES
 10
374.0
 20
424.0
 30
0.0
  0
VERTEX
  8
LINES
 10
374.0
 20
425.0
 30
0.0
  0
VERTEX
  8
LINES
 10
374.0
 20
426.0
 30
0.0
  0
VERTEX
  8
LINES
 10
373.0
 20
427.0
 30
0.0
  0
VERTEX
  8
LINES
 10
373.0
 20
428.0
 30
0.0
  0
VERTEX
  8
LINES
 10
373.0
 20
429.0
 30
0.0
  0
VERTEX
  8
LINES
 10
373.0
 20
430.0
 30
0.0
  0
VERTEX
  8
LINES
 10
373.0
 20
431.0
 30
0.0
  0
VERTEX
  8
LINES
 10
372.0
 20
432.0
 30
0.0
  0
VERTEX
  8
LINES
 10
372.0
 20
433.0
 30
0.0
  0
VERTEX
  8
LINES
 10
372.0
 20
434.0
 30
0.0
  0
VERTEX
  8
LINES
 10
372.0
 20
435.0
 30
0.0
  0
VERTEX
  8
LINES
 10
372.0
 20
436.0
 30
0.0
  0
VERTEX
  8
LINES
 10
371.0
 20
437.0
 30
0.0
  0
VERTEX
  8
LINES
 10
371.0
 20
438.0
 30
0.0
  0
VERTEX
  8
LINES
 10
371.0
 20
439.0
 30
0.0
  0
VERTEX
  8
LINES
 10
371.0
 20
440.0
 30
0.0
  0
VERTEX
  8
LINES
 10
371.0
 20
441.0
 30
0.0
  0
VERTEX
  8
LINES
 10
371.0
 20
442.0
 30
0.0
  0
VERTEX
  8
LINES
 10
370.0
 20
443.0
 30
0.0
  0
VERTEX
  8
LINES
 10
370.0
 20
444.0
 30
0.0
  0
VERTEX
  8
LINES
 10
370.0
 20
445.0
 30
0.0
  0
VERTEX
  8
LINES
 10
370.0
 20
446.0
 30
0.0
  0
VERTEX
  8
LINES
 10
370.0
 20
447.0
 30
0.0
  0
VERTEX
  8
LINES
 10
370.0
 20
448.0
 30
0.0
  0
VERTEX
  8
LINES
 10
370.0
 20
449.0
 30
0.0
  0
VERTEX
  8
LINES
 10
369.0
 20
450.0
 30
0.0
  0
VERTEX
  8
LINES
 10
369.0
 20
451.0
 30
0.0
  0
VERTEX
  8
LINES
 10
369.0
 20
452.0
 30
0.0
  0
VERTEX
  8
LINES
 10
369.0
 20
453.0
 30
0.0
  0
VERTEX
  8
LINES
 10
369.0
 20
454.0
 30
0.0
  0
VERTEX
  8
LINES
 10
369.0
 20
455.0
 30
0.0
  0
VERTEX
  8
LINES
 10
369.0
 20
456.0
 30
0.0
  0
VERTEX
  8
LINES
 10
368.0
 20
457.0
 30
0.0
  0
VERTEX
  8
LINES
 10
368.0
 20
458.0
 30
0.0
  0
VERTEX
  8
LINES
 10
368.0
 20
459.0
 30
0.0
  0
VERTEX
  8
LINES
 10
368.0
 20
460.0
 30
0.0
  0
VERTEX
  8
LINES
 10
368.0
 20
461.0
 30
0.0
  0
VERTEX
  8
LINES
 10
368.0
 20
462.0
 30
0.0
  0
VERTEX
  8
LINES
 10
368.0
 20
463.0
 30
0.0
  0
VERTEX
  8
LINES
 10
368.0
 20
464.0
 30
0.0
  0
VERTEX
  8
LINES
 10
368.0
 20
465.0
 30
0.0
  0
VERTEX
  8
LINES
 10
367.0
 20
466.0
 30
0.0
  0
VERTEX
  8
LINES
 10
367.0
 20
467.0
 30
0.0
  0
VERTEX
  8
LINES
 10
367.0
 20
468.0
 30
0.0
  0
VERTEX
  8
LINES
 10
367.0
 20
469.0
 30
0.0
  0
VERTEX
  8
LINES
 10
367.0
 20
470.0
 30
0.0
  0
VERTEX
  8
LINES
 10
367.0
 20
471.0
 30
0.0
  0
VERTEX
  8
LINES
 10
367.0
 20
472.0
 30
0.0
  0
VERTEX
  8
LINES
 10
367.0
 20
473.0
 30
0.0
  0
VERTEX
  8
LINES
 10
367.0
 20
474.0
 30
0.0
  0
VERTEX
  8
LINES
 10
367.0
 20
475.0
 30
0.0
  0
VERTEX
  8
LINES
 10
367.0
 20
476.0
 30
0.0
  0
VERTEX
  8
LINES
 10
366.0
 20
477.0
 30
0.0
  0
VERTEX
  8
LINES
 10
366.0
 20
478.0
 30
0.0
  0
VERTEX
  8
LINES
 10
366.0
 20
479.0
 30
0.0
  0
VERTEX
  8
LINES
 10
366.0
 20
480.0
 30
0.0
  0
VERTEX
  8
LINES
 10
366.0
 20
481.0
 30
0.0
  0
VERTEX
  8
LINES
 10
366.0
 20
482.0
 30
0.0
  0
VERTEX
  8
LINES
 10
366.0
 20
483.0
 30
0.0
  0
VERTEX
  8
LINES
 10
366.0
 20
484.0
 30
0.0
  0
VERTEX
  8
LINES
 10
366.0
 20
485.0
 30
0.0
  0
VERTEX
  8
LINES
 10
366.0
 20
486.0
 30
0.0
  0
VERTEX
  8
LINES
 10
366.0
 20
487.0
 30
0.0
  0
VERTEX
  8
LINES
 10
366.0
 20
488.0
 30
0.0
  0
VERTEX
  8
LINES
 10
366.0
 20
489.0
 30
0.0
  0
VERTEX
  8
LINES
 10
366.0
 20
490.0
 30
0.0
  0
VERTEX
  8
LINES
 10
366.0
 20
491.0
 30
0.0
  0
VERTEX
  8
LINES
 10
366.0
 20
492.0
 30
0.0
  0
VERTEX
  8
LINES
 10
366.0
 20
493.0
 30
0.0
  0
VERTEX
  8
LINES
 10
366.0
 20
494.0
 30
0.0
  0
VERTEX
  8
LINES
 10
366.0
 20
495.0
 30
0.0
  0
VERTEX
  8
LINES
 10
366.0
 20
496.0
 30
0.0
  0
VERTEX
  8
LINES
 10
366.0
 20
497.0
 30
0.0
  0
VERTEX
  8
LINES
 10
366.0
 20
498.0
 30
0.0
  0
VERTEX
  8
LINES
 10
365.0
 20
499.0
 30
0.0
  0
VERTEX
  8
LINES
 10
365.0
 20
500.0
 30
0.0
  0
VERTEX
  8
LINES
 10
365.0
 20
501.0
 30
0.0
  0
VERTEX
  8
LINES
 10
365.0
 20
502.0
 30
0.0
  0
VERTEX
  8
LINES
 10
365.0
 20
503.0
 30
0.0
  0
VERTEX
  8
LINES
 10
365.0
 20
504.0
 30
0.0
  0
VERTEX
  8
LINES
 10
365.0
 20
505.0
 30
0.0
  0
VERTEX
  8
LINES
 10
365.0
 20
506.0
 30
0.0
  0
VERTEX
  8
LINES
 10
365.0
 20
507.0
 30
0.0
  0
VERTEX
  8
LINES
 10
365.0
 20
508.0
 30
0.0
  0
VERTEX
  8
LINES
 10
365.0
 20
509.0
 30
0.0
  0
VERTEX
  8
LINES
 10
365.0
 20
510.0
 30
0.0
  0
VERTEX
  8
LINES
 10
365.0
 20
511.0
 30
0.0
  0
VERTEX
  8
LINES
 10
365.0
 20
512.0
 30
0.0
  0
VERTEX
  8
LINES
 10
366.0
 20
513.0
 30
0.0
  0
VERTEX
  8
LINES
 10
366.0
 20
514.0
 30
0.0
  0
VERTEX
  8
LINES
 10
366.0
 20
515.0
 30
0.0
  0
VERTEX
  8
LINES
 10
366.0
 20
516.0
 30
0.0
  0
VERTEX
  8
LINES
 10
366.0
 20
517.0
 30
0.0
  0
VERTEX
  8
LINES
 10
366.0
 20
518.0
 30
0.0
  0
VERTEX
  8
LINES
 10
366.0
 20
519.0
 30
0.0
  0
VERTEX
  8
LINES
 10
366.0
 20
520.0
 30
0.0
  0
VERTEX
  8
LINES
 10
366.0
 20
521.0
 30
0.0
  0
VERTEX
  8
LINES
 10
366.0
 20
522.0
 30
0.0
  0
VERTEX
  8
LINES
 10
366.0
 20
523.0
 30
0.0
  0
VERTEX
  8
LINES
 10
366.0
 20
524.0
 30
0.0
  0
VERTEX
  8
LINES
 10
366.0
 20
525.0
 30
0.0
  0
VERTEX
  8
LINES
 10
366.0
 20
526.0
 30
0.0
  0
VERTEX
  8
LINES
 10
366.0
 20
527.0
 30
0.0
  0
VERTEX
  8
LINES
 10
366.0
 20
528.0
 30
0.0
  0
VERTEX
  8
LINES
 10
366.0
 20
529.0
 30
0.0
  0
VERTEX
  8
LINES
 10
366.0
 20
530.0
 30
0.0
  0
VERTEX
  8
LINES
 10
366.0
 20
531.0
 30
0.0
  0
VERTEX
  8
LINES
 10
366.0
 20
532.0
 30
0.0
  0
VERTEX
  8
LINES
 10
366.0
 20
533.0
 30
0.0
  0
VERTEX
  8
LINES
 10
366.0
 20
534.0
 30
0.0
  0
VERTEX
  8
LINES
 10
367.0
 20
535.0
 30
0.0
  0
VERTEX
  8
LINES
 10
367.0
 20
536.0
 30
0.0
  0
VERTEX
  8
LINES
 10
367.0
 20
537.0
 30
0.0
  0
VERTEX
  8
LINES
 10
367.0
 20
538.0
 30
0.0
  0
VERTEX
  8
LINES
 10
367.0
 20
539.0
 30
0.0
  0
VERTEX
  8
LINES
 10
367.0
 20
540.0
 30
0.0
  0
VERTEX
  8
LINES
 10
367.0
 20
541.0
 30
0.0
  0
VERTEX
  8
LINES
 10
367.0
 20
542.0
 30
0.0
  0
VERTEX
  8
LINES
 10
367.0
 20
543.0
 30
0.0
  0
VERTEX
  8
LINES
 10
367.0
 20
544.0
 30
0.0
  0
VERTEX
  8
LINES
 10
367.0
 20
545.0
 30
0.0
  0
VERTEX
  8
LINES
 10
368.0
 20
546.0
 30
0.0
  0
VERTEX
  8
LINES
 10
368.0
 20
547.0
 30
0.0
  0
VERTEX
  8
LINES
 10
368.0
 20
548.0
 30
0.0
  0
VERTEX
  8
LINES
 10
368.0
 20
549.0
 30
0.0
  0
VERTEX
  8
LINES
 10
368.0
 20
550.0
 30
0.0
  0
VERTEX
  8
LINES
 10
368.0
 20
551.0
 30
0.0
  0
VERTEX
  8
LINES
 10
368.0
 20
552.0
 30
0.0
  0
VERTEX
  8
LINES
 10
368.0
 20
553.0
 30
0.0
  0
VERTEX
  8
LINES
 10
368.0
 20
554.0
 30
0.0
  0
VERTEX
  8
LINES
 10
369.0
 20
555.0
 30
0.0
  0
VERTEX
  8
LINES
 10
369.0
 20
556.0
 30
0.0
  0
VERTEX
  8
LINES
 10
369.0
 20
557.0
 30
0.0
  0
VERTEX
  8
LINES
 10
369.0
 20
558.0
 30
0.0
  0
VERTEX
  8
LINES
 10
369.0
 20
559.0
 30
0.0
  0
VERTEX
  8
LINES
 10
369.0
 20
560.0
 30
0.0
  0
VERTEX
  8
LINES
 10
369.0
 20
561.0
 30
0.0
  0
VERTEX
  8
LINES
 10
370.0
 20
562.0
 30
0.0
  0
VERTEX
  8
LINES
 10
370.0
 20
563.0
 30
0.0
  0
VERTEX
  8
LINES
 10
370.0
 20
564.0
 30
0.0
  0
VERTEX
  8
LINES
 10
370.0
 20
565.0
 30
0.0
  0
VERTEX
  8
LINES
 10
370.0
 20
566.0
 30
0.0
  0
VERTEX
  8
LINES
 10
370.0
 20
567.0
 30
0.0
  0
VERTEX
  8
LINES
 10
370.0
 20
568.0
 30
0.0
  0
VERTEX
  8
LINES
 10
371.0
 20
569.0
 30
0.0
  0
VERTEX
  8
LINES
 10
371.0
 20
570.0
 30
0.0
  0
VERTEX
  8
LINES
 10
371.0
 20
571.0
 30
0.0
  0
VERTEX
  8
LINES
 10
371.0
 20
572.0
 30
0.0
  0
VERTEX
  8
LINES
 10
371.0
 20
573.0
 30
0.0
  0
VERTEX
  8
LINES
 10
371.0
 20
574.0
 30
0.0
  0
VERTEX
  8
LINES
 10
372.0
 20
575.0
 30
0.0
  0
VERTEX
  8
LINES
 10
372.0
 20
576.0
 30
0.0
  0
VERTEX
  8
LINES
 10
372.0
 20
577.0
 30
0.0
  0
VERTEX
  8
LINES
 10
372.0
 20
578.0
 30
0.0
  0
VERTEX
  8
LINES
 10
372.0
 20
579.0
 30
0.0
  0
VERTEX
  8
LINES
 10
373.0
 20
580.0
 30
0.0
  0
VERTEX
  8
LINES
 10
373.0
 20
581.0
 30
0.0
  0
VERTEX
  8
LINES
 10
373.0
 20
582.0
 30
0.0
  0
VERTEX
  8
LINES
 10
373.0
 20
583.0
 30
0.0
  0
VERTEX
  8
LINES
 10
373.0
 20
584.0
 30
0.0
  0
VERTEX
  8
LINES
 10
374.0
 20
585.0
 30
0.0
  0
VERTEX
  8
LINES
 10
374.0
 20
586.0
 30
0.0
  0
VERTEX
  8
LINES
 10
374.0
 20
587.0
 30
0.0
  0
VERTEX
  8
LINES
 10
374.0
 20
588.0
 30
0.0
  0
VERTEX
  8
LINES
 10
374.0
 20
589.0
 30
0.0
  0
VERTEX
  8
LINES
 10
375.0
 20
590.0
 30
0.0
  0
VERTEX
  8
LINES
 10
375.0
 20
591.0
 30
0.0
  0
VERTEX
  8
LINES
 10
375.0
 20
592.0
 30
0.0
  0
SEQEND
  0
POLYLINE
  8
LINES
 66
1
 10
0.0
 20
0.0
 30
0.0
 70
8
  0
VERTEX
  8
LINES
 10
397.0
 20
622.0
 30
0.0
  0
VERTEX
  8
LINES
 10
397.0
 20
623.0
 30
0.0
  0
VERTEX
  8
LINES
 10
397.0
 20
624.0
 30
0.0
  0
VERTEX
  8
LINES
 10
397.0
 20
625.0
 30
0.0
  0
VERTEX
  8
LINES
 10
397.0
 20
626.0
 30
0.0
  0
VERTEX
  8
LINES
 10
397.0
 20
627.0
 30
0.0
  0
VERTEX
  8
LINES
 10
397.0
 20
628.0
 30
0.0
  0
VERTEX
  8
LINES
 10
397.0
 20
629.0
 30
0.0
  0
VERTEX
  8
LINES
 10
397.0
 20
630.0
 30
0.0
  0
VERTEX
  8
LINES
 10
397.0
 20
631.0
 30
0.0
  0
VERTEX
  8
LINES
 10
397.0
 20
632.0
 30
0.0
  0
VERTEX
  8
LINES
 10
398.0
 20
633.0
 30
0.0
  0
VERTEX
  8
LINES
 10
398.0
 20
634.0
 30
0.0
  0
VERTEX
  8
LINES
 10
398.0
 20
635.0
 30
0.0
  0
VERTEX
  8
LINES
 10
398.0
 20
636.0
 30
0.0
  0
VERTEX
  8
LINES
 10
398.0
 20
637.0
 30
0.0
  0
VERTEX
  8
LINES
 10
398.0
 20
638.0
 30
0.0
  0
VERTEX
  8
LINES
 10
398.0
 20
639.0
 30
0.0
  0
VERTEX
  8
LINES
 10
398.0
 20
640.0
 30
0.0
  0
VERTEX
  8
LINES
 10
398.0
 20
641.0
 30
0.0
  0
VERTEX
  8
LINES
 10
398.0
 20
642.0
 30
0.0
  0
VERTEX
  8
LINES
 10
399.0
 20
643.0
 30
0.0
  0
VERTEX
  8
LINES
 10
399.0
 20
644.0
 30
0.0
  0
VERTEX
  8
LINES
 10
399.0
 20
645.0
 30
0.0
  0
VERTEX
  8
LINES
 10
399.0
 20
646.0
 30
0.0
  0
VERTEX
  8
LINES
 10
399.0
 20
647.0
 30
0.0
  0
VERTEX
  8
LINES
 10
399.0
 20
648.0
 30
0.0
  0
VERTEX
  8
LINES
 10
399.0
 20
649.0
 30
0.0
  0
VERTEX
  8
LINES
 10
399.0
 20
650.0
 30
0.0
  0
VERTEX
  8
LINES
 10
399.0
 20
651.0
 30
0.0
  0
VERTEX
  8
LINES
 10
400.0
 20
652.0
 30
0.0
  0
VERTEX
  8
LINES
 10
400.0
 20
653.0
 30
0.0
  0
VERTEX
  8
LINES
 10
400.0
 20
654.0
 30
0.0
  0
VERTEX
  8
LINES
 10
400.0
 20
655.0
 30
0.0
  0
VERTEX
  8
LINES
 10
400.0
 20
656.0
 30
0.0
  0
VERTEX
  8
LINES
 10
400.0
 20
657.0
 30
0.0
  0
VERTEX
  8
LINES
 10
400.0
 20
658.0
 30
0.0
  0
VERTEX
  8
LINES
 10
401.0
 20
659.0
 30
0.0
  0
VERTEX
  8
LINES
 10
401.0
 20
660.0
 30
0.0
  0
VERTEX
  8
LINES
 10
401.0
 20
661.0
 30
0.0
  0
VERTEX
  8
LINES
 10
401.0
 20
662.0
 30
0.0
  0
VERTEX
  8
LINES
 10
401.0
 20
663.0
 30
0.0
  0
VERTEX
  8
LINES
 10
401.0
 20
664.0
 30
0.0
  0
VERTEX
  8
LINES
 10
401.0
 20
665.0
 30
0.0
  0
VERTEX
  8
LINES
 10
402.0
 20
666.0
 30
0.0
  0
VERTEX
  8
LINES
 10
402.0
 20
667.0
 30
0.0
  0
VERTEX
  8
LINES
 10
402.0
 20
668.0
 30
0.0
  0
SEQEND
  0
POLYLINE
  8
LINES
 66
1
 10
0.0
 20
0.0
 30
0.0
 70
8
  0
VERTEX
  8
LINES
 10
402.0
 20
594.0
 30
0.0
  0
VERTEX
  8
LINES
 10
402.0
 20
595.0
 30
0.0
  0
VERTEX
  8
LINES
 10
402.0
 20
596.0
 30
0.0
  0
VERTEX
  8
LINES
 10
402.0
 20
597.0
 30
0.0
  0
VERTEX
  8
LINES
 10
403.0
 20
598.0
 30
0.0
  0
VERTEX
  8
LINES
 10
403.0
 20
599.0
 30
0.0
  0
VERTEX
  8
LINES
 10
403.0
 20
600.0
 30
0.0
  0
VERTEX
  8
LINES
 10
403.0
 20
601.0
 30
0.0
  0
VERTEX
  8
LINES
 10
404.0
 20
602.0
 30
0.0
  0
VERTEX
  8
LINES
 10
404.0
 20
603.0
 30
0.0
  0
VERTEX
  8
LINES
 10
404.0
 20
604.0
 30
0.0
  0
VERTEX
  8
LINES
 10
404.0
 20
605.0
 30
0.0
  0
VERTEX
  8
LINES
 10
404.0
 20
606.0
 30
0.0
  0
VERTEX
  8
LINES
 10
405.0
 20
607.0
 30
0.0
  0
VERTEX
  8
LINES
 10
405.0
 20
608.0
 30
0.0
  0
VERTEX
  8
LINES
 10
405.0
 20
609.0
 30
0.0
  0
VERTEX
  8
LINES
 10
405.0
 20
610.0
 30
0.0
  0
VERTEX
  8
LINES
 10
406.0
 20
611.0
 30
0.0
  0
VERTEX
  8
LINES
 10
406.0
 20
612.0
 30
0.0
  0
VERTEX
  8
LINES
 10
406.0
 20
613.0
 30
0.0
  0
VERTEX
  8
LINES
 10
406.0
 20
614.0
 30
0.0
  0
VERTEX
  8
LINES
 10
407.0
 20
615.0
 30
0.0
  0
VERTEX
  8
LINES
 10
407.0
 20
616.0
 30
0.0
  0
VERTEX
  8
LINES
 10
407.0
 20
617.0
 30
0.0
  0
VERTEX
  8
LINES
 10
407.0
 20
618.0
 30
0.0
  0
VERTEX
  8
LINES
 10
408.0
 20
619.0
 30
0.0
  0
VERTEX
  8
LINES
 10
408.0
 20
620.0
 30
0.0
  0
VERTEX
  8
LINES
 10
408.0
 20
621.0
 30
0.0
  0
VERTEX
  8
LINES
 10
408.0
 20
622.0
 30
0.0
  0
VERTEX
  8
LINES
 10
409.0
 20
623.0
 30
0.0
  0
VERTEX
  8
LINES
 10
409.0
 20
624.0
 30
0.0
  0
VERTEX
  8
LINES
 10
409.0
 20
625.0
 30
0.0
  0
VERTEX
  8
LINES
 10
409.0
 20
626.0
 30
0.0
  0
VERTEX
  8
LINES
 10
410.0
 20
627.0
 30
0.0
  0
VERTEX
  8
LINES
 10
410.0
 20
628.0
 30
0.0
  0
SEQEND
  0
POLYLINE
  8
LINES
 66
1
 10
0.0
 20
0.0
 30
0.0
 70
8
  0
VERTEX
  8
LINES
 10
330.0
 20
386.0
 30
0.0
  0
VERTEX
  8
LINES
 10
330.0
 20
387.0
 30
0.0
  0
VERTEX
  8
LINES
 10
330.0
 20
388.0
 30
0.0
  0
VERTEX
  8
LINES
 10
329.0
 20
389.0
 30
0.0
  0
VERTEX
  8
LINES
 10
329.0
 20
390.0
 30
0.0
  0
VERTEX
  8
LINES
 10
329.0
 20
391.0
 30
0.0
  0
VERTEX
  8
LINES
 10
329.0
 20
392.0
 30
0.0
  0
VERTEX
  8
LINES
 10
328.0
 20
393.0
 30
0.0
  0
VERTEX
  8
LINES
 10
328.0
 20
394.0
 30
0.0
  0
VERTEX
  8
LINES
 10
328.0
 20
395.0
 30
0.0
  0
VERTEX
  8
LINES
 10
327.0
 20
396.0
 30
0.0
  0
VERTEX
  8
LINES
 10
327.0
 20
397.0
 30
0.0
  0
VERTEX
  8
LINES
 10
327.0
 20
398.0
 30
0.0
  0
VERTEX
  8
LINES
 10
327.0
 20
399.0
 30
0.0
  0
VERTEX
  8
LINES
 10
326.0
 20
400.0
 30
0.0
  0
VERTEX
  8
LINES
 10
326.0
 20
401.0
 30
0.0
  0
VERTEX
  8
LINES
 10
326.0
 20
402.0
 30
0.0
  0
VERTEX
  8
LINES
 10
326.0
 20
403.0
 30
0.0
  0
VERTEX
  8
LINES
 10
325.0
 20
404.0
 30
0.0
  0
VERTEX
  8
LINES
 10
325.0
 20
405.0
 30
0.0
  0
VERTEX
  8
LINES
 10
325.0
 20
406.0
 30
0.0
  0
VERTEX
  8
LINES
 10
325.0
 20
407.0
 30
0.0
  0
VERTEX
  8
LINES
 10
324.0
 20
408.0
 30
0.0
  0
VERTEX
  8
LINES
 10
324.0
 20
409.0
 30
0.0
  0
VERTEX
  8
LINES
 10
324.0
 20
410.0
 30
0.0
  0
VERTEX
  8
LINES
 10
324.0
 20
411.0
 30
0.0
  0
VERTEX
  8
LINES
 10
323.0
 20
412.0
 30
0.0
  0
VERTEX
  8
LINES
 10
323.0
 20
413.0
 30
0.0
  0
VERTEX
  8
LINES
 10
323.0
 20
414.0
 30
0.0
  0
VERTEX
  8
LINES
 10
323.0
 20
415.0
 30
0.0
  0
VERTEX
  8
LINES
 10
322.0
 20
416.0
 30
0.0
  0
VERTEX
  8
LINES
 10
322.0
 20
417.0
 30
0.0
  0
VERTEX
  8
LINES
 10
322.0
 20
418.0
 30
0.0
  0
VERTEX
  8
LINES
 10
322.0
 20
419.0
 30
0.0
  0
VERTEX
  8
LINES
 10
322.0
 20
420.0
 30
0.0
  0
VERTEX
  8
LINES
 10
321.0
 20
421.0
 30
0.0
  0
VERTEX
  8
LINES
 10
321.0
 20
422.0
 30
0.0
  0
VERTEX
  8
LINES
 10
321.0
 20
423.0
 30
0.0
  0
VERTEX
  8
LINES
 10
321.0
 20
424.0
 30
0.0
  0
VERTEX
  8
LINES
 10
321.0
 20
425.0
 30
0.0
  0
VERTEX
  8
LINES
 10
320.0
 20
426.0
 30
0.0
  0
VERTEX
  8
LINES
 10
320.0
 20
427.0
 30
0.0
  0
VERTEX
  8
LINES
 10
320.0
 20
428.0
 30
0.0
  0
VERTEX
  8
LINES
 10
320.0
 20
429.0
 30
0.0
  0
VERTEX
  8
LINES
 10
320.0
 20
430.0
 30
0.0
  0
VERTEX
  8
LINES
 10
319.0
 20
431.0
 30
0.0
  0
VERTEX
  8
LINES
 10
319.0
 20
432.0
 30
0.0
  0
VERTEX
  8
LINES
 10
319.0
 20
433.0
 30
0.0
  0
VERTEX
  8
LINES
 10
319.0
 20
434.0
 30
0.0
  0
VERTEX
  8
LINES
 10
319.0
 20
435.0
 30
0.0
  0
VERTEX
  8
LINES
 10
318.0
 20
436.0
 30
0.0
  0
VERTEX
  8
LINES
 10
318.0
 20
437.0
 30
0.0
  0
VERTEX
  8
LINES
 10
318.0
 20
438.0
 30
0.0
  0
VERTEX
  8
LINES
 10
318.0
 20
439.0
 30
0.0
  0
VERTEX
  8
LINES
 10
318.0
 20
440.0
 30
0.0
  0
VERTEX
  8
LINES
 10
318.0
 20
441.0
 30
0.0
  0
VERTEX
  8
LINES
 10
317.0
 20
442.0
 30
0.0
  0
VERTEX
  8
LINES
 10
317.0
 20
443.0
 30
0.0
  0
VERTEX
  8
LINES
 10
317.0
 20
444.0
 30
0.0
  0
VERTEX
  8
LINES
 10
317.0
 20
445.0
 30
0.0
  0
VERTEX
  8
LINES
 10
317.0
 20
446.0
 30
0.0
  0
VERTEX
  8
LINES
 10
317.0
 20
447.0
 30
0.0
  0
VERTEX
  8
LINES
 10
316.0
 20
448.0
 30
0.0
  0
VERTEX
  8
LINES
 10
316.0
 20
449.0
 30
0.0
  0
VERTEX
  8
LINES
 10
316.0
 20
450.0
 30
0.0
  0
VERTEX
  8
LINES
 10
316.0
 20
451.0
 30
0.0
  0
VERTEX
  8
LINES
 10
316.0
 20
452.0
 30
0.0
  0
VERTEX
  8
LINES
 10
316.0
 20
453.0
 30
0.0
  0
VERTEX
  8
LINES
 10
316.0
 20
454.0
 30
0.0
  0
VERTEX
  8
LINES
 10
316.0
 20
455.0
 30
0.0
  0
VERTEX
  8
LINES
 10
315.0
 20
456.0
 30
0.0
  0
VERTEX
  8
LINES
 10
315.0
 20
457.0
 30
0.0
  0
VERTEX
  8
LINES
 10
315.0
 20
458.0
 30
0.0
  0
VERTEX
  8
LINES
 10
315.0
 20
459.0
 30
0.0
  0
VERTEX
  8
LINES
 10
315.0
 20
460.0
 30
0.0
  0
VERTEX
  8
LINES
 10
315.0
 20
461.0
 30
0.0
  0
VERTEX
  8
LINES
 10
315.0
 20
462.0
 30
0.0
  0
VERTEX
  8
LINES
 10
315.0
 20
463.0
 30
0.0
  0
VERTEX
  8
LINES
 10
314.0
 20
464.0
 30
0.0
  0
VERTEX
  8
LINES
 10
314.0
 20
465.0
 30
0.0
  0
VERTEX
  8
LINES
 10
314.0
 20
466.0
 30
0.0
  0
VERTEX
  8
LINES
 10
314.0
 20
467.0
 30
0.0
  0
VERTEX
  8
LINES
 10
314.0
 20
468.0
 30
0.0
  0
VERTEX
  8
LINES
 10
314.0
 20
469.0
 30
0.0
  0
VERTEX
  8
LINES
 10
314.0
 20
470.0
 30
0.0
  0
VERTEX
  8
LINES
 10
314.0
 20
471.0
 30
0.0
  0
VERTEX
  8
LINES
 10
314.0
 20
472.0
 30
0.0
  0
VERTEX
  8
LINES
 10
314.0
 20
473.0
 30
0.0
  0
VERTEX
  8
LINES
 10
314.0
 20
474.0
 30
0.0
  0
VERTEX
  8
LINES
 10
313.0
 20
475.0
 30
0.0
  0
VERTEX
  8
LINES
 10
313.0
 20
476.0
 30
0.0
  0
VERTEX
  8
LINES
 10
313.0
 20
477.0
 30
0.0
  0
VERTEX
  8
LINES
 10
313.0
 20
478.0
 30
0.0
  0
VERTEX
  8
LINES
 10
313.0
 20
479.0
 30
0.0
  0
VERTEX
  8
LINES
 10
313.0
 20
480.0
 30
0.0
  0
VERTEX
  8
LINES
 10
313.0
 20
481.0
 30
0.0
  0
VERTEX
  8
LINES
 10
313.0
 20
482.0
 30
0.0
  0
VERTEX
  8
LINES
 10
313.0
 20
483.0
 30
0.0
  0
VERTEX
  8
LINES
 10
313.0
 20
484.0
 30
0.0
  0
VERTEX
  8
LINES
 10
313.0
 20
485.0
 30
0.0
  0
VERTEX
  8
LINES
 10
313.0
 20
486.0
 30
0.0
  0
VERTEX
  8
LINES
 10
313.0
 20
487.0
 30
0.0
  0
VERTEX
  8
LINES
 10
313.0
 20
488.0
 30
0.0
  0
VERTEX
  8
LINES
 10
313.0
 20
489.0
 30
0.0
  0
VERTEX
  8
LINES
 10
313.0
 20
490.0
 30
0.0
  0
VERTEX
  8
LINES
 10
312.0
 20
491.0
 30
0.0
  0
VERTEX
  8
LINES
 10
312.0
 20
492.0
 30
0.0
  0
VERTEX
  8
LINES
 10
312.0
 20
493.0
 30
0.0
  0
VERTEX
  8
LINES
 10
312.0
 20
494.0
 30
0.0
  0
VERTEX
  8
LINES
 10
312.0
 20
495.0
 30
0.0
  0
VERTEX
  8
LINES
 10
312.0
 20
496.0
 30
0.0
  0
VERTEX
  8
LINES
 10
312.0
 20
497.0
 30
0.0
  0
VERTEX
  8
LINES
 10
312.0
 20
498.0
 30
0.0
  0
VERTEX
  8
LINES
 10
312.0
 20
499.0
 30
0.0
  0
VERTEX
  8
LINES
 10
312.0
 20
500.0
 30
0.0
  0
VERTEX
  8
LINES
 10
312.0
 20
501.0
 30
0.0
  0
VERTEX
  8
LINES
 10
312.0
 20
502.0
 30
0.0
  0
VERTEX
  8
LINES
 10
312.0
 20
503.0
 30
0.0
  0
VERTEX
  8
LINES
 10
312.0
 20
504.0
 30
0.0
  0
VERTEX
  8
LINES
 10
312.0
 20
505.0
 30
0.0
  0
VERTEX
  8
LINES
 10
312.0
 20
506.0
 30
0.0
  0
VERTEX
  8
LINES
 10
312.0
 20
507.0
 30
0.0
  0
VERTEX
  8
LINES
 10
312.0
 20
508.0
 30
0.0
  0
VERTEX
  8
LINES
 10
312.0
 20
509.0
 30
0.0
  0
VERTEX
  8
LINES
 10
312.0
 20
510.0
 30
0.0
  0
VERTEX
  8
LINES
 10
312.0
 20
511.0
 30
0.0
  0
VERTEX
  8
LINES
 10
312.0
 20
512.0
 30
0.0
  0
VERTEX
  8
LINES
 10
312.0
 20
513.0
 30
0.0
  0
VERTEX
  8
LINES
 10
312.0
 20
514.0
 30
0.0
  0
VERTEX
  8
LINES
 10
312.0
 20
515.0
 30
0.0
  0
VERTEX
  8
LINES
 10
312.0
 20
516.0
 30
0.0
  0
VERTEX
  8
LINES
 10
312.0
 20
517.0
 30
0.0
  0
VERTEX
  8
LINES
 10
312.0
 20
518.0
 30
0.0
  0
VERTEX
  8
LINES
 10
312.0
 20
519.0
 30
0.0
  0
VERTEX
  8
LINES
 10
312.0
 20
520.0
 30
0.0
  0
VERTEX
  8
LINES
 10
312.0
 20
521.0
 30
0.0
  0
VERTEX
  8
LINES
 10
312.0
 20
522.0
 30
0.0
  0
VERTEX
  8
LINES
 10
313.0
 20
523.0
 30
0.0
  0
VERTEX
  8
LINES
 10
313.0
 20
524.0
 30
0.0
  0
VERTEX
  8
LINES
 10
313.0
 20
525.0
 30
0.0
  0
VERTEX
  8
LINES
 10
313.0
 20
526.0
 30
0.0
  0
VERTEX
  8
LINES
 10
313.0
 20
527.0
 30
0.0
  0
VERTEX
  8
LINES
 10
313.0
 20
528.0
 30
0.0
  0
VERTEX
  8
LINES
 10
313.0
 20
529.0
 30
0.0
  0
VERTEX
  8
LINES
 10
313.0
 20
530.0
 30
0.0
  0
VERTEX
  8
LINES
 10
313.0
 20
531.0
 30
0.0
  0
VERTEX
  8
LINES
 10
313.0
 20
532.0
 30
0.0
  0
VERTEX
  8
LINES
 10
313.0
 20
533.0
 30
0.0
  0
VERTEX
  8
LINES
 10
313.0
 20
534.0
 30
0.0
  0
VERTEX
  8
LINES
 10
313.0
 20
535.0
 30
0.0
  0
VERTEX
  8
LINES
 10
313.0
 20
536.0
 30
0.0
  0
VERTEX
  8
LINES
 10
313.0
 20
537.0
 30
0.0
  0
VERTEX
  8
LINES
 10
313.0
 20
538.0
 30
0.0
  0
VERTEX
  8
LINES
 10
314.0
 20
539.0
 30
0.0
  0
VERTEX
  8
LINES
 10
314.0
 20
540.0
 30
0.0
  0
VERTEX
  8
LINES
 10
314.0
 20
541.0
 30
0.0
  0
VERTEX
  8
LINES
 10
314.0
 20
542.0
 30
0.0
  0
SEQEND
  0
POLYLINE
  8
LINES
 66
1
 10
0.0
 20
0.0
 30
0.0
 70
8
  0
VERTEX
  8
LINES
 10
315.0
 20
537.0
 30
0.0
  0
VERTEX
  8
LINES
 10
315.0
 20
538.0
 30
0.0
  0
VERTEX
  8
LINES
 10
315.0
 20
539.0
 30
0.0
  0
VERTEX
  8
LINES
 10
315.0
 20
540.0
 30
0.0
  0
VERTEX
  8
LINES
 10
314.0
 20
541.0
 30
0.0
  0
VERTEX
  8
LINES
 10
314.0
 20
542.0
 30
0.0
  0
VERTEX
  8
LINES
 10
314.0
 20
543.0
 30
0.0
  0
VERTEX
  8
LINES
 10
314.0
 20
544.0
 30
0.0
  0
VERTEX
  8
LINES
 10
314.0
 20
545.0
 30
0.0
  0
VERTEX
  8
LINES
 10
314.0
 20
546.0
 30
0.0
  0
VERTEX
  8
LINES
 10
314.0
 20
547.0
 30
0.0
  0
VERTEX
  8
LINES
 10
314.0
 20
548.0
 30
0.0
  0
VERTEX
  8
LINES
 10
314.0
 20
549.0
 30
0.0
  0
VERTEX
  8
LINES
 10
314.0
 20
550.0
 30
0.0
  0
VERTEX
  8
LINES
 10
314.0
 20
551.0
 30
0.0
  0
VERTEX
  8
LINES
 10
314.0
 20
552.0
 30
0.0
  0
VERTEX
  8
LINES
 10
314.0
 20
553.0
 30
0.0
  0
VERTEX
  8
LINES
 10
313.0
 20
554.0
 30
0.0
  0
VERTEX
  8
LINES
 10
313.0
 20
555.0
 30
0.0
  0
VERTEX
  8
LINES
 10
313.0
 20
556.0
 30
0.0
  0
VERTEX
  8
LINES
 10
313.0
 20
557.0
 30
0.0
  0
VERTEX
  8
LINES
 10
313.0
 20
558.0
 30
0.0
  0
VERTEX
  8
LINES
 10
313.0
 20
559.0
 30
0.0
  0
VERTEX
  8
LINES
 10
313.0
 20
560.0
 30
0.0
  0
VERTEX
  8
LINES
 10
313.0
 20
561.0
 30
0.0
  0
VERTEX
  8
LINES
 10
313.0
 20
562.0
 30
0.0
  0
VERTEX
  8
LINES
 10
313.0
 20
563.0
 30
0.0
  0
VERTEX
  8
LINES
 10
313.0
 20
564.0
 30
0.0
  0
VERTEX
  8
LINES
 10
313.0
 20
565.0
 30
0.0
  0
VERTEX
  8
LINES
 10
313.0
 20
566.0
 30
0.0
  0
VERTEX
  8
LINES
 10
313.0
 20
567.0
 30
0.0
  0
VERTEX
  8
LINES
 10
313.0
 20
568.0
 30
0.0
  0
VERTEX
  8
LINES
 10
313.0
 20
569.0
 30
0.0
  0
VERTEX
  8
LINES
 10
313.0
 20
570.0
 30
0.0
  0
VERTEX
  8
LINES
 10
313.0
 20
571.0
 30
0.0
  0
VERTEX
  8
LINES
 10
313.0
 20
572.0
 30
0.0
  0
VERTEX
  8
LINES
 10
313.0
 20
573.0
 30
0.0
  0
VERTEX
  8
LINES
 10
313.0
 20
574.0
 30
0.0
  0
VERTEX
  8
LINES
 10
313.0
 20
575.0
 30
0.0
  0
VERTEX
  8
LINES
 10
313.0
 20
576.0
 30
0.0
  0
VERTEX
  8
LINES
 10
313.0
 20
577.0
 30
0.0
  0
VERTEX
  8
LINES
 10
313.0
 20
578.0
 30
0.0
  0
VERTEX
  8
LINES
 10
313.0
 20
579.0
 30
0.0
  0
VERTEX
  8
LINES
 10
313.0
 20
580.0
 30
0.0
  0
VERTEX
  8
LINES
 10
313.0
 20
581.0
 30
0.0
  0
VERTEX
  8
LINES
 10
313.0
 20
582.0
 30
0.0
  0
VERTEX
  8
LINES
 10
313.0
 20
583.0
 30
0.0
  0
VERTEX
  8
LINES
 10
313.0
 20
584.0
 30
0.0
  0
VERTEX
  8
LINES
 10
313.0
 20
585.0
 30
0.0
  0
VERTEX
  8
LINES
 10
313.0
 20
586.0
 30
0.0
  0
VERTEX
  8
LINES
 10
313.0
 20
587.0
 30
0.0
  0
VERTEX
  8
LINES
 10
313.0
 20
588.0
 30
0.0
  0
VERTEX
  8
LINES
 10
313.0
 20
589.0
 30
0.0
  0
VERTEX
  8
LINES
 10
313.0
 20
590.0
 30
0.0
  0
VERTEX
  8
LINES
 10
313.0
 20
591.0
 30
0.0
  0
VERTEX
  8
LINES
 10
313.0
 20
592.0
 30
0.0
  0
VERTEX
  8
LINES
 10
313.0
 20
593.0
 30
0.0
  0
VERTEX
  8
LINES
 10
313.0
 20
594.0
 30
0.0
  0
VERTEX
  8
LINES
 10
313.0
 20
595.0
 30
0.0
  0
VERTEX
  8
LINES
 10
313.0
 20
596.0
 30
0.0
  0
VERTEX
  8
LINES
 10
313.0
 20
597.0
 30
0.0
  0
VERTEX
  8
LINES
 10
313.0
 20
598.0
 30
0.0
  0
VERTEX
  8
LINES
 10
313.0
 20
599.0
 30
0.0
  0
VERTEX
  8
LINES
 10
313.0
 20
600.0
 30
0.0
  0
VERTEX
  8
LINES
 10
313.0
 20
601.0
 30
0.0
  0
VERTEX
  8
LINES
 10
314.0
 20
602.0
 30
0.0
  0
VERTEX
  8
LINES
 10
314.0
 20
603.0
 30
0.0
  0
VERTEX
  8
LINES
 10
314.0
 20
604.0
 30
0.0
  0
VERTEX
  8
LINES
 10
314.0
 20
605.0
 30
0.0
  0
VERTEX
  8
LINES
 10
314.0
 20
606.0
 30
0.0
  0
VERTEX
  8
LINES
 10
314.0
 20
607.0
 30
0.0
  0
VERTEX
  8
LINES
 10
314.0
 20
608.0
 30
0.0
  0
VERTEX
  8
LINES
 10
314.0
 20
609.0
 30
0.0
  0
VERTEX
  8
LINES
 10
314.0
 20
610.0
 30
0.0
  0
VERTEX
  8
LINES
 10
314.0
 20
611.0
 30
0.0
  0
VERTEX
  8
LINES
 10
314.0
 20
612.0
 30
0.0
  0
VERTEX
  8
LINES
 10
314.0
 20
613.0
 30
0.0
  0
VERTEX
  8
LINES
 10
314.0
 20
614.0
 30
0.0
  0
VERTEX
  8
LINES
 10
314.0
 20
615.0
 30
0.0
  0
VERTEX
  8
LINES
 10
315.0
 20
616.0
 30
0.0
  0
VERTEX
  8
LINES
 10
315.0
 20
617.0
 30
0.0
  0
VERTEX
  8
LINES
 10
315.0
 20
618.0
 30
0.0
  0
VERTEX
  8
LINES
 10
315.0
 20
619.0
 30
0.0
  0
VERTEX
  8
LINES
 10
315.0
 20
620.0
 30
0.0
  0
VERTEX
  8
LINES
 10
315.0
 20
621.0
 30
0.0
  0
VERTEX
  8
LINES
 10
315.0
 20
622.0
 30
0.0
  0
VERTEX
  8
LINES
 10
315.0
 20
623.0
 30
0.0
  0
VERTEX
  8
LINES
 10
315.0
 20
624.0
 30
0.0
  0
VERTEX
  8
LINES
 10
315.0
 20
625.0
 30
0.0
  0
VERTEX
  8
LINES
 10
316.0
 20
626.0
 30
0.0
  0
VERTEX
  8
LINES
 10
316.0
 20
627.0
 30
0.0
  0
VERTEX
  8
LINES
 10
316.0
 20
628.0
 30
0.0
  0
VERTEX
  8
LINES
 10
316.0
 20
629.0
 30
0.0
  0
VERTEX
  8
LINES
 10
316.0
 20
630.0
 30
0.0
  0
VERTEX
  8
LINES
 10
316.0
 20
631.0
 30
0.0
  0
VERTEX
  8
LINES
 10
316.0
 20
632.0
 30
0.0
  0
VERTEX
  8
LINES
 10
316.0
 20
633.0
 30
0.0
  0
VERTEX
  8
LINES
 10
317.0
 20
634.0
 30
0.0
  0
VERTEX
  8
LINES
 10
317.0
 20
635.0
 30
0.0
  0
VERTEX
  8
LINES
 10
317.0
 20
636.0
 30
0.0
  0
VERTEX
  8
LINES
 10
317.0
 20
637.0
 30
0.0
  0
VERTEX
  8
LINES
 10
317.0
 20
638.0
 30
0.0
  0
VERTEX
  8
LINES
 10
317.0
 20
639.0
 30
0.0
  0
VERTEX
  8
LINES
 10
317.0
 20
640.0
 30
0.0
  0
VERTEX
  8
LINES
 10
318.0
 20
641.0
 30
0.0
  0
VERTEX
  8
LINES
 10
318.0
 20
642.0
 30
0.0
  0
VERTEX
  8
LINES
 10
318.0
 20
643.0
 30
0.0
  0
VERTEX
  8
LINES
 10
318.0
 20
644.0
 30
0.0
  0
VERTEX
  8
LINES
 10
318.0
 20
645.0
 30
0.0
  0
VERTEX
  8
LINES
 10
318.0
 20
646.0
 30
0.0
  0
VERTEX
  8
LINES
 10
319.0
 20
647.0
 30
0.0
  0
VERTEX
  8
LINES
 10
319.0
 20
648.0
 30
0.0
  0
VERTEX
  8
LINES
 10
319.0
 20
649.0
 30
0.0
  0
VERTEX
  8
LINES
 10
319.0
 20
650.0
 30
0.0
  0
VERTEX
  8
LINES
 10
319.0
 20
651.0
 30
0.0
  0
VERTEX
  8
LINES
 10
319.0
 20
652.0
 30
0.0
  0
VERTEX
  8
LINES
 10
320.0
 20
653.0
 30
0.0
  0
VERTEX
  8
LINES
 10
320.0
 20
654.0
 30
0.0
  0
VERTEX
  8
LINES
 10
320.0
 20
655.0
 30
0.0
  0
VERTEX
  8
LINES
 10
320.0
 20
656.0
 30
0.0
  0
VERTEX
  8
LINES
 10
320.0
 20
657.0
 30
0.0
  0
VERTEX
  8
LINES
 10
320.0
 20
658.0
 30
0.0
  0
VERTEX
  8
LINES
 10
321.0
 20
659.0
 30
0.0
  0
VERTEX
  8
LINES
 10
321.0
 20
660.0
 30
0.0
  0
VERTEX
  8
LINES
 10
321.0
 20
661.0
 30
0.0
  0
VERTEX
  8
LINES
 10
321.0
 20
662.0
 30
0.0
  0
VERTEX
  8
LINES
 10
321.0
 20
663.0
 30
0.0
  0
VERTEX
  8
LINES
 10
322.0
 20
664.0
 30
0.0
  0
VERTEX
  8
LINES
 10
322.0
 20
665.0
 30
0.0
  0
VERTEX
  8
LINES
 10
322.0
 20
666.0
 30
0.0
  0
VERTEX
  8
LINES
 10
322.0
 20
667.0
 30
0.0
  0
VERTEX
  8
LINES
 10
322.0
 20
668.0
 30
0.0
  0
VERTEX
  8
LINES
 10
323.0
 20
669.0
 30
0.0
  0
VERTEX
  8
LINES
 10
323.0
 20
670.0
 30
0.0
  0
VERTEX
  8
LINES
 10
323.0
 20
671.0
 30
0.0
  0
VERTEX
  8
LINES
 10
323.0
 20
672.0
 30
0.0
  0
VERTEX
  8
LINES
 10
324.0
 20
673.0
 30
0.0
  0
VERTEX
  8
LINES
 10
324.0
 20
674.0
 30
0.0
  0
VERTEX
  8
LINES
 10
324.0
 20
675.0
 30
0.0
  0
VERTEX
  8
LINES
 10
324.0
 20
676.0
 30
0.0
  0
VERTEX
  8
LINES
 10
325.0
 20
677.0
 30
0.0
  0
VERTEX
  8
LINES
 10
325.0
 20
678.0
 30
0.0
  0
SEQEND
  0
ARC
  8
LINES
 10
104.0
 20
239.0
 30
0.0
 40
151.229692734
 50
22.1533432007
 51
70.7277984619
  0
ARC
  8
LINES
 10
119.0
 20
273.0
 30
0.0
 40
135.576985738
 50
9.3235912323
 51
56.4271011353
  0
ARC
  8
LINES
 10
140.0
 20
294.0
 30
0.0
 40
115.348053836
 50
0.0
 51
53.8263664246
  0
ARC
  8
LINES
 10
60.0
 20
307.0
 30
0.0
 40
186.279026724
 50
316.089141846
 51
356.308624268
  0
ARC
  8
LINES
 10
9.0
 20
276.0
 30
0.0
 40
238.041206519
 50
323.033721924
 51
4.80348539352
  0
ARC
  8
LINES
 10
448.0
 20
242.0
 30
0.0
 40
114.017863483
 50
102.094749451
 51
153.886077881
  0
ARC
  8
LINES
 10
471.0
 20
257.0
 30
0.0
 40
132.881252249
 50
108.843215942
 51
165.124313354
  0
ARC
  8
LINES
 10
456.0
 20
278.0
 30
0.0
 40
119.77506511
 50
114.641662598
 51
174.241729736
  0
ARC
  8
LINES
 10
440.0
 20
302.0
 30
0.0
 40
107.594411119
 50
127.828277588
 51
186.398956299
  0
ARC
  8
LINES
 10
522.0
 20
327.0
 30
0.0
 40
181.705700954
 50
191.433685303
 51
225.668792725
  0
ARC
  8
LINES
 10
603.0
 20
302.0
 30
0.0
 40
264.228109265
 50
182.169265747
 51
214.35206604
  0
ARC
  8
LINES
 10
84.0
 20
548.0
 30
0.0
 40
108.206264612
 50
23.4773979187
 51
78.794052124
  0
ARC
  8
LINES
 10
72.0
 20
555.0
 30
0.0
 40
117.547168032
 50
17.3540267944
 51
74.6591033936
  0
ARC
  8
LINES
 10
74.0
 20
566.0
 30
0.0
 40
116.556867515
 50
11.4065523148
 51
71.4089279175
  0
ARC
  8
LINES
 10
81.0
 20
588.0
 30
0.0
 40
109.21258028
 50
0.525634646416
 51
58.4957313538
  0
ARC
  8
LINES
 10
16.0
 20
600.0
 30
0.0
 40
170.09252105
 50
315.954833984
 51
356.633544922
  0
ARC
  8
LINES
 10
-69.0
 20
553.0
 30
0.0
 40
259.242518877
 50
327.783447266
 51
8.41080856323
  0
ARC
  8
LINES
 10
-92.0
 20
525.0
 30
0.0
 40
291.332304205
 50
331.499420166
 51
13.2742490768
  0
ARC
  8
LINES
 10
115.0
 20
551.0
 30
0.0
 40
141.200030194
 50
16.504360199
 51
62.5255622864
  0
ARC
  8
LINES
 10
113.0
 20
558.0
 30
0.0
 40
146.554215273
 50
12.6136264801
 51
55.0079727173
  0
ARC
  8
LINES
 10
124.0
 20
575.0
 30
0.0
 40
134.895014273
 50
5.96448659897
 51
49.2141723633
  0
ARC
  8
LINES
 10
136.0
 20
599.0
 30
0.0
 40
121.415930281
 50
355.275543213
 51
41.6725921631
  0
ARC
  8
LINES
 10
115.0
 20
570.0
 30
0.0
 40
138.208493509
 50
318.228637695
 51
8.30567646027
  0
ARC
  8
LINES
 10
24.0
 20
533.0
 30
0.0
 40
233.242469298
 50
322.686706543
 51
14.0956163406
  0
ARC
  8
LINES
 10
510.0
 20
548.0
 30
0.0
 40
111.959319982
 50
99.7132415771
 51
157.815979004
  0
ARC
  8
LINES
 10
510.0
 20
552.0
 30
0.0
 40
115.956617942
 50
97.9207382202
 51
161.250244141
  0
ARC
  8
LINES
 10
504.0
 20
561.0
 30
0.0
 40
113.923694332
 50
103.671302795
 51
165.718887329
  0
ARC
  8
LINES
 10
496.0
 20
575.0
 30
0.0
 40
106.444199428
 50
113.19858551
 51
172.405349731
  0
ARC
  8
LINES
 10
773.0
 20
647.0
 30
0.0
 40
373.618551511
 50
188.932754517
 51
207.044799805
  0
ARC
  8
LINES
 10
920.0
 20
619.0
 30
0.0
 40
524.235190214
 50
183.167724609
 51
201.82170105
  0
ARC
  8
LINES
 10
984.0
 20
598.0
 30
0.0
 40
599.238183154
 50
180.669540405
 51
200.611999512
  0
ARC
  8
LINES
 10
523.0
 20
512.0
 30
0.0
 40
202.859171557
 50
127.998718262
 51
172.069519043
  0
ARC
  8
LINES
 10
518.0
 20
521.0
 30
0.0
 40
201.001071075
 50
130.971740723
 51
174.85723877
  0
ARC
  8
LINES
 10
507.0
 20
542.0
 30
0.0
 40
190.409154499
 50
137.544799805
 51
181.206054688
  0
ARC
  8
LINES
 10
572.0
 20
568.0
 30
0.0
 40
251.150418234
 50
186.616744995
 51
218.695449829
  0
ARC
  8
LINES
 10
592.0
 20
561.0
 30
0.0
 40
274.345739463
 50
184.382720947
 51
218.790176392
  0
ENDSEC
  0
EOF
