0
SECTION
2
HEADER
9
$INSUNITS
70
1
9
$ACADVER
1
AC1014
9
$HANDSEED
5
FFFF
0
ENDSEC
0
SECTION
2
TABLES
0
TABLE
2
VPORT
5
8
100
AcDbSymbolTable
0
ENDTAB
0
TABLE
2
LTYPE
5
5
100
AcDbSymbolTable
0
LTYPE
5
14
100
AcDbSymbolTableRecord
100
AcDbLinetypeTableRecord
2
BYBLOCK
70
0
0
LTYPE
5
15
100
AcDbSymbolTableRecord
100
AcDbLinetypeTableRecord
2
BYLAYER
70
0
0
ENDTAB
0
TABLE
2
LAYER
5
2
100
AcDbSymbolTable
70
2
0
LAYER
5
50
100
AcDbSymbolTableRecord
100
AcDbLayerTableRecord
2
0
70
0
6
CONTINUOUS
0
ENDTAB
0
TABLE
2
STYLE
5
3
100
AcDbSymbolTable
70
1
0
STYLE
5
11
100
AcDbSymbolTableRecord
100
AcDbTextStyleTableRecord
2
STANDARD
70
0
0
ENDTAB
0
TABLE
2
VIEW
5
6
100
AcDbSymbolTable
70
0
0
ENDTAB
0
TABLE
2
UCS
5
7
100
AcDbSymbolTable
70
0
0
ENDTAB
0
TABLE
2
APPID
5
9
100
AcDbSymbolTable
70
2
0
APPID
5
12
100
AcDbSymbolTableRecord
100
AcDbRegAppTableRecord
2
ACAD
70
0
0
ENDTAB
0
TABLE
2
DIMSTYLE
5
A
100
AcDbSymbolTable
70
1
0
ENDTAB
0
TABLE
2
BLOCK_RECORD
5
1
100
AcDbSymbolTable
70
1
0
BLOCK_RECORD
5
1F
100
AcDbSymbolTableRecord
100
AcDbBlockTableRecord
2
*MODEL_SPACE
0
BLOCK_RECORD
5
1B
100
AcDbSymbolTableRecord
100
AcDbBlockTableRecord
2
*PAPER_SPACE
0
ENDTAB
0
ENDSEC
0
SECTION
2
BLOCKS
0
BLOCK
5
20
100
AcDbEntity
100
AcDbBlockBegin
2
*MODEL_SPACE
0
ENDBLK
5
21
100
AcDbEntity
100
AcDbBlockEnd
0
BLOCK
5
1C
100
AcDbEntity
100
AcDbBlockBegin
2
*PAPER_SPACE
0
ENDBLK
5
1D
100
AcDbEntity
100
AcDbBlockEnd
0
ENDSEC
0
SECTION
2
ENTITIES
0
LINE
5
100
100
AcDbEntity
8
0
100
AcDbLine
10
7.3231640597999998
20
22.411742783099999
30
0
11
7.4227964217999993
21
22.511375145099997
31
0
0
LINE
5
101
100
AcDbEntity
8
0
100
AcDbLine
10
6.2030761775999999
20
20.900904007099999
30
0
11
7.3231640597999998
21
22.225403594399999
31
0
0
LINE
5
102
100
AcDbEntity
8
0
100
AcDbLine
10
7.4227964217999993
20
23.1282101394
30
0
11
7.5232928395999998
21
23.228706557199999
31
0
0
LINE
5
103
100
AcDbEntity
8
0
100
AcDbLine
10
6.7363699034999991
20
24.161765255299997
30
0
11
6.7663068883000008
21
24.220096534299998
31
0
0
LINE
5
104
100
AcDbEntity
8
0
100
AcDbLine
10
6.7663068883000008
20
24.635449362700001
30
0
11
6.7663068883000008
21
24.220096534299998
31
0
0
LINE
5
105
100
AcDbEntity
8
0
100
AcDbLine
10
5.9803219611999996
20
25.924499027099998
30
0
11
5.8579158919999994
21
26.070389024800001
31
0
0
LINE
5
106
100
AcDbEntity
8
0
100
AcDbLine
10
5.8579158919999994
20
26.070389024800001
30
0
11
5.7907840965999995
21
26.024523194699995
31
0
0
LINE
5
107
100
AcDbEntity
8
0
100
AcDbLine
10
0.25880299130000001
20
22.225403594399999
30
0
11
0.25880299130000001
21
22.587570077800002
31
0
0
LINE
5
108
100
AcDbEntity
8
0
100
AcDbLine
10
6.2030761775999999
20
25.877204026899999
30
0
11
5.9803219611999996
21
25.924499027099998
31
0
0
LINE
5
109
100
AcDbEntity
8
0
100
AcDbLine
10
4.7120617524999995
20
22.461558964099996
30
0
11
6.7187071801999991
21
22.927886859499999
31
0
0
LINE
5
110
100
AcDbEntity
8
0
100
AcDbLine
10
1.1035825956
20
20.929165366099998
30
0
11
1.1035825956
21
21.1416960534
31
0
0
SPLINE
5
111
100
AcDbEntity
8
0
100
AcDbSpline
70
0
71
3
72
8
73
4
74
0
42
0.000000001
43
0.0000000001
44
0.0000000001
40
38
40
38
40
38
40
38
40
39
40
39
40
39
40
39
10
2.3098613575
20
22.461558964099996
30
0
10
2.5725771189414006
20
22.110555966759208
30
0
10
2.9621368736892495
20
21.890096779505399
30
0
10
3.5109615550043207
20
21.8629028923805
30
0
0
LINE
5
112
100
AcDbEntity
8
0
100
AcDbLine
10
6.7631201186999998
20
22.587570077800002
30
0
11
6.7631201186999998
21
22.225403594399999
31
0
0
LINE
5
113
100
AcDbEntity
8
0
100
AcDbLine
10
1.1640072179999998
20
20.711198600099998
30
0
11
1.2311390133999998
21
20.778330395499996
31
0
0
LINE
5
114
100
AcDbEntity
8
0
100
AcDbLine
10
7.3231640597999998
20
24.450808161699999
30
0
11
7.3231640597999998
21
24.573905275300003
31
0
0
LINE
5
115
100
AcDbEntity
8
0
100
AcDbLine
10
6.7631201186999998
20
22.587570077800002
30
0
11
6.7187071801999991
21
22.631983016299998
31
0
0
LINE
5
116
100
AcDbEntity
8
0
100
AcDbLine
10
6.0070980256999995
20
20.860380733699998
30
0
11
6.2030761775999999
21
20.900904007099999
31
0
0
LINE
5
117
100
AcDbEntity
8
0
100
AcDbLine
10
6.7363699034999991
20
24.161765255299997
30
0
11
6.7363699034999991
21
23.875181145599996
31
0
0
SPLINE
5
118
100
AcDbEntity
8
0
100
AcDbSpline
70
0
71
3
72
8
73
4
74
0
42
0.000000001
43
0.0000000001
44
0.0000000001
40
0
40
0
40
0
40
0
40
1
40
1
40
1
40
1
10
4.7120617524999995
20
24.304980661800013
30
0
10
4.6391125843311976
20
24.396107293537238
30
0
10
4.5660375604550403
20
24.4692239358012
30
0
10
4.4928366808715312
20
24.524330588591898
30
0
0
LINE
5
119
100
AcDbEntity
8
0
100
AcDbLine
10
5.9183405144000005
20
25.872494740399997
30
0
11
5.9392467782000002
21
25.665332671999995
31
0
0
LINE
5
120
100
AcDbEntity
8
0
100
AcDbLine
10
6.7363699034999991
20
23.875181145599996
30
0
11
4.7120617524999995
21
24.304980661800013
31
0
0
LINE
5
121
100
AcDbEntity
8
0
100
AcDbLine
10
0.30321592980000001
20
22.631983016299998
30
0
11
0.30321592980000001
21
22.927886859499999
31
0
0
LINE
5
122
100
AcDbEntity
8
0
100
AcDbLine
10
5.9392467782000002
20
25.665332671999995
30
0
11
6.7663068883000008
21
24.635449362700001
31
0
0
LINE
5
123
100
AcDbEntity
8
0
100
AcDbLine
10
4.4634017105999995
20
24.524330588600002
30
0
11
4.4928366808715312
21
24.524330588591898
31
0
0
SPLINE
5
124
100
AcDbEntity
8
0
100
AcDbSpline
70
0
71
3
72
8
73
4
74
0
42
0.000000001
43
0.0000000001
44
0.0000000001
40
39
40
39
40
39
40
39
40
40
40
40
40
40
40
40
10
3.5109615550043207
20
21.8629028923805
30
0
10
4.0597862363193986
20
21.890096779505399
30
0
10
4.4493459910672497
20
22.110555966759208
30
0
10
4.7120617525271111
20
22.461558964095406
30
0
0
LINE
5
125
100
AcDbEntity
8
0
100
AcDbLine
10
7.3231640597999998
20
22.225403594399999
30
0
11
7.3231640597999998
21
22.411742783099999
31
0
0
LINE
5
126
100
AcDbEntity
8
0
100
AcDbLine
10
7.3231640597999998
20
24.573905275300003
30
0
11
6.2030761775999999
21
25.877204026899999
31
0
0
LINE
5
127
100
AcDbEntity
8
0
100
AcDbLine
10
5.9183405144000005
20
20.929165366099998
30
0
11
5.7907840965999995
21
20.778330395499996
31
0
0
LINE
5
128
100
AcDbEntity
8
0
100
AcDbLine
10
5.7907840965999995
20
20.778330395499996
30
0
11
5.8579158919999994
21
20.711198600099998
31
0
0
SPLINE
5
129
100
AcDbEntity
8
0
100
AcDbSpline
70
0
71
3
72
8
73
4
74
0
42
0.000000001
43
0.0000000001
44
0.0000000001
40
0
40
0
40
0
40
0
40
1
40
1
40
1
40
1
10
4.0042266728999989
20
24.676191663400012
30
0
10
3.9091334287005277
20
24.715109998107874
30
0
10
3.8169983618894814
20
24.742088919102837
30
0
10
3.7278214724668617
20
24.757128426384913
30
0
0
LINE
5
130
100
AcDbEntity
8
0
100
AcDbLine
10
1.2311390133999998
20
20.778330395499996
30
0
11
1.1035825956
21
20.929165366099998
31
0
0
LINE
5
131
100
AcDbEntity
8
0
100
AcDbLine
10
7.5232928395999998
20
23.228706557199999
30
0
11
7.5232928395999998
21
23.584241509799998
31
0
0
LINE
5
132
100
AcDbEntity
8
0
100
AcDbLine
10
7.5232928395999998
20
23.584241509799998
30
0
11
7.4227964217999993
21
23.635818635899998
31
0
0
LINE
5
133
100
AcDbEntity
8
0
100
AcDbLine
10
7.4227964217999993
20
23.635818635899998
30
0
11
7.4227964217999993
21
24.304980661799998
31
0
0
LINE
5
134
100
AcDbEntity
8
0
100
AcDbLine
10
6.7187071801999991
20
22.927886859499999
30
0
11
6.7187071801999991
21
22.631983016299998
31
0
0
LINE
5
135
100
AcDbEntity
8
0
100
AcDbLine
10
0.30321592980000001
20
22.927886859499999
30
0
11
2.3098613575
21
22.461558964099996
31
0
0
LINE
5
136
100
AcDbEntity
8
0
100
AcDbLine
10
1.1035825956
20
21.1416960534
30
0
11
0.25880299130000001
21
22.225403594399999
31
0
0
SPLINE
5
137
100
AcDbEntity
8
0
100
AcDbSpline
70
0
71
3
72
8
73
4
74
0
42
0.000000001
43
0.0000000001
44
0.0000000001
40
0
40
0
40
0
40
0
40
1
40
1
40
1
40
1
10
4.4634017105999995
20
24.573905275300003
30
0
10
4.3133071198552511
20
24.69164995257826
30
0
10
4.1602487739629614
20
24.773255637112623
30
0
10
4.0042266729231315
20
24.818722328903103
30
0
0
LINE
5
138
100
AcDbEntity
8
0
100
AcDbLine
10
5.7907840965999995
20
26.024523194699995
30
0
11
5.9183405144000005
21
25.872494740399997
31
0
0
LINE
5
139
100
AcDbEntity
8
0
100
AcDbLine
10
4.4634017105999995
20
24.573905275300003
30
0
11
4.4634017105999995
21
24.524330588600002
31
0
0
LINE
5
140
100
AcDbEntity
8
0
100
AcDbLine
10
0.30321592980000001
20
22.631983016299998
30
0
11
0.25880299130000001
21
22.587570077800002
31
0
0
SPLINE
5
141
100
AcDbEntity
8
0
100
AcDbSpline
70
0
71
3
72
8
73
4
74
0
42
0.000000001
43
0.0000000001
44
0.0000000001
40
77
40
77
40
77
40
77
40
78
40
78
40
78
40
78
10
3.7278214724668617
20
24.757128426384913
30
0
10
3.7281359255113711
20
24.832252418281804
30
0
10
3.6789744888080906
20
24.8958960615387
30
0
10
3.6161766740125203
20
24.903939325131397
30
0
0
LINE
5
142
100
AcDbEntity
8
0
100
AcDbLine
10
3.1527690000999993
20
23.175998809699998
30
0
11
2.8455067911999996
21
22.927886859499999
31
0
0
LINE
5
143
100
AcDbEntity
8
0
100
AcDbLine
10
3.1015586318999997
20
23.288169815599996
30
0
11
3.1527690000999993
21
23.175998809699998
31
0
0
LINE
5
144
100
AcDbEntity
8
0
100
AcDbLine
10
6.7631201186999998
20
22.225403594399999
30
0
11
5.9183405144000005
21
21.1416960534
31
0
0
LINE
5
145
100
AcDbEntity
8
0
100
AcDbLine
10
5.9183405144000005
20
21.1416960534
30
0
11
5.9183405144000005
21
20.929165366099998
31
0
0
LINE
5
146
100
AcDbEntity
8
0
100
AcDbLine
10
7.4227964217999993
20
22.511375145099997
30
0
11
7.4227964217999993
21
23.1282101394
31
0
0
LINE
5
147
100
AcDbEntity
8
0
100
AcDbLine
10
7.4227964217999993
20
24.304980661799998
30
0
11
7.3231640597999998
21
24.450808161699999
31
0
0
LINE
5
148
100
AcDbEntity
8
0
100
AcDbLine
10
5.8579158919999994
20
20.711198600099998
30
0
11
6.0070980256999995
21
20.860380733699998
31
0
0
LINE
5
149
100
AcDbEntity
8
0
100
AcDbLine
10
4.0042266729231315
20
24.818722328903103
30
0
11
4.0042266728999989
21
24.676191663400012
31
0
0
LWPOLYLINE
5
150
100
AcDbEntity
8
0
100
AcDbPolyline
90
8
70
1
43
0.0
10
3.2133471727999998
20
23.383720497799999
10
3.2941016374999994
20
23.175998809699998
10
3.5109615550000002
20
23.088664288499999
10
3.7278214724999996
20
23.175998809699998
10
3.8085759373000001
20
23.383720497799999
10
3.7278214724999996
20
23.584241509799998
10
3.5109615550000002
20
23.668548578200003
10
3.2941016374999994
20
23.584241509799998
0
LWPOLYLINE
5
151
100
AcDbEntity
8
0
100
AcDbPolyline
90
5
70
1
43
0.0
10
5.2796086973999996
20
23.1282101394
10
6.0070980256999995
20
23.288169815599996
10
6.1193445166999991
20
23.400416306599993
10
6.0070980256999995
20
23.512662797599997
10
5.2796086973999996
20
23.635818635899998
0
LINE
5
152
100
AcDbEntity
8
0
100
AcDbLine
10
3.7503880135999998
20
23.737237750100004
30
0
11
3.5730866497000005
21
23.810019359099996
31
0
0
LINE
5
153
100
AcDbEntity
8
0
100
AcDbLine
10
3.4488364602999995
20
22.973887990200001
30
0
11
3.4488364602999995
21
22.587570077800002
31
0
0
LINE
5
154
100
AcDbEntity
8
0
100
AcDbLine
10
3.8691541099000002
20
23.175998809699998
30
0
11
3.9203644781000002
21
23.288169815599996
31
0
0
LINE
5
155
100
AcDbEntity
8
0
100
AcDbLine
10
3.4488364602999995
20
22.973887990200001
30
0
11
3.2715350964000001
21
23.045321787500001
31
0
0
LINE
5
156
100
AcDbEntity
8
0
100
AcDbLine
10
3.9203644781000002
20
23.288169815599996
30
0
11
4.3300474231999999
21
23.288169815599996
31
0
0
LWPOLYLINE
5
157
100
AcDbEntity
8
0
100
AcDbPolyline
90
5
70
1
43
0.0
10
1.0148250843000002
20
23.288169815599996
10
1.7423144125999999
20
23.1282101394
10
1.7423144125999999
20
23.635818635899998
10
1.0148250843000002
20
23.512662797599997
10
0.90257859330000001
20
23.400416306599993
0
LINE
5
158
100
AcDbEntity
8
0
100
AcDbLine
10
3.1015586318999997
20
23.473621168099999
30
0
11
2.6918756867999996
21
23.473621168099999
31
0
0
SPLINE
5
159
100
AcDbEntity
8
0
100
AcDbSpline
70
0
71
3
72
8
73
4
74
0
42
0.000000001
43
0.0000000001
44
0.0000000001
40
0
40
0
40
0
40
0
40
1
40
1
40
1
40
1
10
3.5730866497408993
20
24.207910607428008
30
0
10
3.7526177561880534
20
24.197637968682805
30
0
10
3.9078765793169699
20
24.136905384731897
30
0
10
4.0388631191276518
20
24.025712855575286
30
0
0
SPLINE
5
160
100
AcDbEntity
8
0
100
AcDbSpline
70
0
71
3
72
8
73
4
74
0
42
0.000000001
43
0.0000000001
44
0.0000000001
40
-3
40
-3
40
-3
40
-3
40
-2
40
-2
40
-2
40
-2
10
2.6918756867999996
20
23.473621168099999
30
0
10
2.6971681025708496
20
23.664598668242508
30
0
10
2.7657921740045102
20
23.767178069976897
30
0
10
2.845506791196871
20
23.875181145599701
30
0
0
SPLINE
5
161
100
AcDbEntity
8
0
100
AcDbSpline
70
0
71
3
72
8
73
4
74
0
42
0.000000001
43
0.0000000001
44
0.0000000001
40
3
40
3
40
3
40
3
40
4
40
4
40
4
40
4
10
2.845506791196871
20
22.927886859460802
30
0
10
2.763214930513441
20
23.032560867600896
30
0
10
2.7018379403866408
20
23.139680478300001
30
0
10
2.6918756867999996
20
23.288169815599996
30
0
0
LINE
5
162
100
AcDbEntity
8
0
100
AcDbLine
10
3.5730866497000005
20
23.810019359099996
30
0
11
3.5730866497000005
21
24.207910607399999
31
0
0
LINE
5
163
100
AcDbEntity
8
0
100
AcDbLine
10
2.6918756867999996
20
23.288169815599996
30
0
11
3.1015586318999997
21
23.288169815599996
31
0
0
LINE
5
164
100
AcDbEntity
8
0
100
AcDbLine
10
3.1527690000999993
20
23.584241509799998
30
0
11
3.1015586318999997
21
23.473621168099999
31
0
0
SPLINE
5
165
100
AcDbEntity
8
0
100
AcDbSpline
70
0
71
3
72
8
73
4
74
0
42
0.000000001
43
0.0000000001
44
0.0000000001
40
2
40
2
40
2
40
2
40
3
40
3
40
3
40
3
10
4.0388631191276518
20
22.757910289039803
30
0
10
3.91374208024008
20
22.641999926567603
30
0
10
3.7558307177095807
20
22.587928974315396
30
0
10
3.5730866497000005
20
22.587570077800002
30
0
0
LINE
5
166
100
AcDbEntity
8
0
100
AcDbLine
10
3.5730866497000005
20
22.973887990200001
30
0
11
3.7503880135999998
21
23.045321787500001
31
0
0
CIRCLE
5
167
100
AcDbEntity
8
0
100
AcDbCircle
10
4.5109615549999997
20
23.383720497799999
30
0
40
0.1254999999999997
210
0
220
0
230
1
0
LINE
5
168
100
AcDbEntity
8
0
100
AcDbLine
10
3.9203644781000002
20
23.473621168099999
30
0
11
3.8691541099000002
21
23.584241509799998
31
0
0
SPLINE
5
169
100
AcDbEntity
8
0
100
AcDbSpline
70
0
71
3
72
8
73
4
74
0
42
0.000000001
43
0.0000000001
44
0.0000000001
40
2
40
2
40
2
40
2
40
3
40
3
40
3
40
3
10
4.1764163188117784
20
23.875181145599701
30
0
10
4.2561309360041291
20
23.767178069976897
30
0
10
4.3247550074377985
20
23.664598668242508
30
0
10
4.3300474232000017
20
23.473621168099999
30
0
0
LINE
5
170
100
AcDbEntity
8
0
100
AcDbLine
10
3.2715350964000001
20
23.737237750100004
30
0
11
2.9830599908999993
21
24.025712855599998
31
0
0
LINE
5
171
100
AcDbEntity
8
0
100
AcDbLine
10
4.3300474232000017
20
23.473621168099999
30
0
11
3.9203644781000002
21
23.473621168099999
31
0
0
LINE
5
172
100
AcDbEntity
8
0
100
AcDbLine
10
3.4488364602999995
20
24.207910607399999
30
0
11
3.4488364602999995
21
23.810019359099996
31
0
0
LINE
5
173
100
AcDbEntity
8
0
100
AcDbLine
10
2.845506791196871
20
23.875181145599701
30
0
11
3.1527690000999993
21
23.584241509799998
31
0
0
LINE
5
174
100
AcDbEntity
8
0
100
AcDbLine
10
4.0388631191276518
20
24.025712855575286
30
0
11
3.7503880135999998
21
23.737237750100004
31
0
0
LINE
5
175
100
AcDbEntity
8
0
100
AcDbLine
10
3.4488364602999995
20
23.810019359099996
30
0
11
3.2715350964000001
21
23.737237750100004
31
0
0
CIRCLE
5
176
100
AcDbEntity
8
0
100
AcDbCircle
10
2.5109615550000002
20
23.383720497799999
30
0
40
0.12549999999999928
210
0
220
0
230
1
0
SPLINE
5
177
100
AcDbEntity
8
0
100
AcDbSpline
70
0
71
3
72
8
73
4
74
0
42
0.000000001
43
0.0000000001
44
0.0000000001
40
0
40
0
40
0
40
0
40
1
40
1
40
1
40
1
10
2.9830599908809909
20
22.757910289039803
30
0
10
3.1081810297685606
20
22.641999926567603
30
0
10
3.266092392299071
20
22.587928974315396
30
0
10
3.4488364602999995
20
22.587570077800002
30
0
0
LINE
5
178
100
AcDbEntity
8
0
100
AcDbLine
10
3.5730866497000005
20
22.587570077800002
30
0
11
3.5730866497000005
21
22.973887990200001
31
0
0
LINE
5
179
100
AcDbEntity
8
0
100
AcDbLine
10
3.7503880135999998
20
23.045321787500001
30
0
11
4.0388631191000002
21
22.757910288999998
31
0
0
LINE
5
180
100
AcDbEntity
8
0
100
AcDbLine
10
4.1764163188000003
20
22.927886859499999
30
0
11
3.8691541099000002
21
23.175998809699998
31
0
0
LINE
5
181
100
AcDbEntity
8
0
100
AcDbLine
10
3.8691541099000002
20
23.584241509799998
30
0
11
4.1764163188117784
21
23.875181145599701
31
0
0
SPLINE
5
182
100
AcDbEntity
8
0
100
AcDbSpline
70
0
71
3
72
8
73
4
74
0
42
0.000000001
43
0.0000000001
44
0.0000000001
40
0
40
0
40
0
40
0
40
1
40
1
40
1
40
1
10
2.9830599908999993
20
24.025712855599998
30
0
10
3.1140465307016161
20
24.136905384740352
30
0
10
3.2693053538241985
20
24.197637968683011
30
0
10
3.448836460267751
20
24.207910607428008
30
0
0
LINE
5
183
100
AcDbEntity
8
0
100
AcDbLine
10
-0.30124094979999994
20
24.450808161699999
30
0
11
-0.40087331179999997
21
24.304980661799998
31
0
0
LINE
5
184
100
AcDbEntity
8
0
100
AcDbLine
10
-0.40087331179999997
20
22.511375145099997
30
0
11
-0.30124094979999994
21
22.411742783099999
31
0
0
LINE
5
185
100
AcDbEntity
8
0
100
AcDbLine
10
1.1035825956
20
25.872494740399997
30
0
11
1.2311390133999998
21
26.024523194699995
31
0
0
LINE
5
186
100
AcDbEntity
8
0
100
AcDbLine
10
2.5585213994
20
24.524330588600002
30
0
11
2.5585213994
21
24.573905275300003
31
0
0
LINE
5
187
100
AcDbEntity
8
0
100
AcDbLine
10
-0.30124094979999994
20
22.225403594399999
30
0
11
0.81884693239999984
21
20.900904007099999
31
0
0
LINE
5
188
100
AcDbEntity
8
0
100
AcDbLine
10
0.25561622169999998
20
24.635449362700001
30
0
11
1.0826763318000001
21
25.665332671999995
31
0
0
LINE
5
189
100
AcDbEntity
8
0
100
AcDbLine
10
1.2311390133999998
20
26.024523194699995
30
0
11
1.1640072179999998
21
26.070389024800001
31
0
0
LINE
5
190
100
AcDbEntity
8
0
100
AcDbLine
10
3.2715350964000001
20
23.045321787500001
30
0
11
2.9830599908999993
21
22.757910288999998
31
0
0
LINE
5
191
100
AcDbEntity
8
0
100
AcDbLine
10
0.2855532066
20
23.875181145699997
30
0
11
0.2855532066
21
24.161765255299997
31
0
0
LINE
5
192
100
AcDbEntity
8
0
100
AcDbLine
10
-0.30124094979999994
20
22.411742783099999
30
0
11
-0.30124094979999994
21
22.225403594399999
31
0
0
SPLINE
5
193
100
AcDbEntity
8
0
100
AcDbSpline
70
0
71
3
72
8
73
4
74
0
42
0.000000001
43
0.0000000001
44
0.0000000001
40
0
40
0
40
0
40
0
40
1
40
1
40
1
40
1
10
2.52908642913712
20
24.524330588591898
30
0
10
2.4558855495555982
20
24.469223935802699
30
0
10
2.3828105256704046
20
24.396107293528424
30
0
10
2.309861357481541
20
24.3049806617691
30
0
0
LINE
5
194
100
AcDbEntity
8
0
100
AcDbLine
10
-0.30124094979999994
20
24.573905275300003
30
0
11
-0.30124094979999994
21
24.450808161699999
31
0
0
LINE
5
195
100
AcDbEntity
8
0
100
AcDbLine
10
1.0826763318000001
20
25.665332671999995
30
0
11
1.1035825956
21
25.872494740399997
31
0
0
SPLINE
5
196
100
AcDbEntity
8
0
100
AcDbSpline
70
0
71
3
72
8
73
4
74
0
42
0.000000001
43
0.0000000001
44
0.0000000001
40
78
40
78
40
78
40
78
40
79
40
79
40
79
40
79
10
3.6161766740125203
20
24.903939325131397
30
0
10
3.6002492084622015
20
24.946161214686601
30
0
10
3.5630928216736604
20
24.9632667429481
30
0
10
3.5109615550043207
20
24.961482456366802
30
0
0
LINE
5
197
100
AcDbEntity
8
0
100
AcDbLine
10
3.0176964370999992
20
24.676191663400001
30
0
11
3.0176964370999992
21
24.818722328899998
31
0
0
LINE
5
198
100
AcDbEntity
8
0
100
AcDbLine
10
-0.50136972960000004
20
23.584241509799998
30
0
11
-0.50136972960000004
21
23.228706557199999
31
0
0
SPLINE
5
199
100
AcDbEntity
8
0
100
AcDbSpline
70
0
71
3
72
8
73
4
74
0
42
0.000000001
43
0.0000000001
44
0.0000000001
40
-2
40
-2
40
-2
40
-2
40
-1
40
-1
40
-1
40
-1
10
4.3300474232000017
20
23.288169815599996
30
0
10
4.3200851696220095
20
23.139680478300001
30
0
10
4.2587081794951995
20
23.032560867600896
30
0
10
4.1764163188117784
20
22.927886859460802
30
0
0
LINE
5
200
100
AcDbEntity
8
0
100
AcDbLine
10
2.309861357481541
20
24.3049806617691
30
0
11
0.2855532066
21
23.875181145699997
31
0
0
LINE
5
201
100
AcDbEntity
8
0
100
AcDbLine
10
-0.40087331179999997
20
23.1282101394
30
0
11
-0.40087331179999997
21
22.511375145099997
31
0
0
SPLINE
5
202
100
AcDbEntity
8
0
100
AcDbSpline
70
0
71
3
72
8
73
4
74
0
42
0.000000001
43
0.0000000001
44
0.0000000001
40
0
40
0
40
0
40
0
40
1
40
1
40
1
40
1
10
3.2941016375417909
20
24.757128426384913
30
0
10
3.2049247481240553
20
24.742088919103665
30
0
10
3.112789681310125
20
24.715109998108698
30
0
10
3.0176964370999992
20
24.676191663400012
30
0
0
LINE
5
203
100
AcDbEntity
8
0
100
AcDbLine
10
1.0148250843000002
20
20.860380733699998
30
0
11
1.1640072179999998
21
20.711198600099998
31
0
0
LINE
5
204
100
AcDbEntity
8
0
100
AcDbLine
10
-0.40087331179999997
20
24.304980661799998
30
0
11
-0.40087331179999997
21
23.635818635899998
31
0
0
LINE
5
205
100
AcDbEntity
8
0
100
AcDbLine
10
-0.40087331179999997
20
23.635818635899998
30
0
11
-0.50136972960000004
21
23.584241509799998
31
0
0
LINE
5
206
100
AcDbEntity
8
0
100
AcDbLine
10
1.1640072179999998
20
26.070389024800001
30
0
11
1.0416011487999997
21
25.924499027099998
31
0
0
LINE
5
207
100
AcDbEntity
8
0
100
AcDbLine
10
1.0416011487999997
20
25.924499027099998
30
0
11
0.81884693239999984
21
25.877204026899999
31
0
0
LINE
5
208
100
AcDbEntity
8
0
100
AcDbLine
10
-0.50136972960000004
20
23.228706557199999
30
0
11
-0.40087331179999997
21
23.1282101394
31
0
0
LINE
5
209
100
AcDbEntity
8
0
100
AcDbLine
10
0.25561622169999998
20
24.220096534299998
30
0
11
0.2855532066
21
24.161765255299997
31
0
0
SPLINE
5
210
100
AcDbEntity
8
0
100
AcDbSpline
70
0
71
3
72
8
73
4
74
0
42
0.000000001
43
0.0000000001
44
0.0000000001
40
0
40
0
40
0
40
0
40
1
40
1
40
1
40
1
10
3.40574643599613
20
24.903939325131397
30
0
10
3.3429486212005597
20
24.8958960615387
30
0
10
3.2937871844972815
20
24.832252418281804
30
0
10
3.2941016375417909
20
24.757128426384913
30
0
0
LINE
5
211
100
AcDbEntity
8
0
100
AcDbLine
10
2.52908642913712
20
24.524330588591898
30
0
11
2.5585213994
21
24.524330588600002
31
0
0
LINE
5
212
100
AcDbEntity
8
0
100
AcDbLine
10
0.81884693239999984
20
25.877204026899999
30
0
11
-0.30124094979999994
21
24.573905275300003
31
0
0
LINE
5
213
100
AcDbEntity
8
0
100
AcDbLine
10
0.25561622169999998
20
24.220096534299998
30
0
11
0.25561622169999998
21
24.635449362700001
31
0
0
SPLINE
5
214
100
AcDbEntity
8
0
100
AcDbSpline
70
0
71
3
72
8
73
4
74
0
42
0.000000001
43
0.0000000001
44
0.0000000001
40
79
40
79
40
79
40
79
40
80
40
80
40
80
40
80
10
3.5109615550043207
20
24.961482456366802
30
0
10
3.4588302883349913
20
24.9632667429481
30
0
10
3.4216739015464399
20
24.946161214686601
30
0
10
3.40574643599613
20
24.903939325131397
30
0
0
LINE
5
215
100
AcDbEntity
8
0
100
AcDbLine
10
0.81884693239999984
20
20.900904007099999
30
0
11
1.0148250843000002
21
20.860380733699998
31
0
0
SPLINE
5
216
100
AcDbEntity
8
0
100
AcDbSpline
70
0
71
3
72
8
73
4
74
0
42
0.000000001
43
0.0000000001
44
0.0000000001
40
0
40
0
40
0
40
0
40
1
40
1
40
1
40
1
10
3.0176964370855099
20
24.818722328903103
30
0
10
2.8616743360502714
20
24.773255637113962
30
0
10
2.708615990155101
20
24.691649952579589
30
0
10
2.5585213994
20
24.573905275300003
30
0
0
ENDSEC
0
SECTION
2
OBJECTS
0
DICTIONARY
5
C
100
AcDbDictionary
3
ACAD_GROUP
350
D
3
ACAD_MLINESTYLE
350
17
0
DICTIONARY
5
D
100
AcDbDictionary
0
DICTIONARY
5
1A
330
C
100
AcDbDictionary
0
DICTIONARY
5
17
100
AcDbDictionary
0
ENDSEC
0
EOF
