  0
SECTION
  2
HEADER
  9
$ACADVER
  1
AC1027
  9
$ACADMAINTVER
 70
   105
  9
$DWGCODEPAGE
  3
ANSI_1252
  9
$LASTSAVEDBY
  1
NewEg
  9
$REQUIREDVERSIONS
160
                 0
  9
$INSBASE
 10
0.0
 20
0.0
 30
0.0
  9
$EXTMIN
 10
0.0
 20
0.0
 30
0.0
  9
$EXTMAX
 10
431.8
 20
279.4
 30
0.0
  9
$LIMMIN
 10
0.0
 20
0.0
  9
$LIMMAX
 10
12.0
 20
9.0
  9
$ORTHOMODE
 70
     0
  9
$REGENMODE
 70
     1
  9
$FILLMODE
 70
     1
  9
$QTEXTMODE
 70
     0
  9
$MIRRTEXT
 70
     1
  9
$LTSCALE
 40
1.0
  9
$ATTMODE
 70
     1
  9
$TEXTSIZE
 40
0.2
  9
$TRACEWID
 40
0.05
  9
$TEXTSTYLE
  7
Standard
  9
$CLAYER
  8
0
  9
$CELTYPE
  6
ByLayer
  9
$CECOLOR
 62
    18
  9
$CELTSCALE
 40
1.0
  9
$DISPSILH
 70
     0
  9
$DIMSCALE
 40
1.0
  9
$DIMASZ
 40
0.125
  9
$DIMEXO
 40
0.03125
  9
$DIMDLI
 40
0.25
  9
$DIMRND
 40
0.0
  9
$DIMDLE
 40
0.0
  9
$DIMEXE
 40
0.0625
  9
$DIMTP
 40
0.0
  9
$DIMTM
 40
0.0
  9
$DIMTXT
 40
0.125
  9
$DIMCEN
 40
0.09
  9
$DIMTSZ
 40
0.0
  9
$DIMTOL
 70
     0
  9
$DIMLIM
 70
     0
  9
$DIMTIH
 70
     1
  9
$DIMTOH
 70
     1
  9
$DIMSE1
 70
     0
  9
$DIMSE2
 70
     0
  9
$DIMTAD
 70
     0
  9
$DIMZIN
 70
     8
  9
$DIMBLK
  1

  9
$DIMASO
 70
     1
  9
$DIMSHO
 70
     1
  9
$DIMPOST
  1

  9
$DIMAPOST
  1

  9
$DIMALT
 70
     0
  9
$DIMALTD
 70
     2
  9
$DIMALTF
 40
25.4
  9
$DIMLFAC
 40
1.0
  9
$DIMTOFL
 70
     0
  9
$DIMTVP
 40
0.0
  9
$DIMTIX
 70
     0
  9
$DIMSOXD
 70
     0
  9
$DIMSAH
 70
     0
  9
$DIMBLK1
  1

  9
$DIMBLK2
  1

  9
$DIMSTYLE
  2
Standard
  9
$DIMCLRD
 70
    18
  9
$DIMCLRE
 70
    18
  9
$DIMCLRT
 70
    18
  9
$DIMTFAC
 40
1.0
  9
$DIMGAP
 40
0.03125
  9
$DIMJUST
 70
     0
  9
$DIMSD1
 70
     0
  9
$DIMSD2
 70
     0
  9
$DIMTOLJ
 70
     1
  9
$DIMTZIN
 70
     0
  9
$DIMALTZ
 70
     0
  9
$DIMALTTZ
 70
     0
  9
$DIMUPT
 70
     0
  9
$DIMDEC
 70
     4
  9
$DIMTDEC
 70
     4
  9
$DIMALTU
 70
     2
  9
$DIMALTTD
 70
     2
  9
$DIMTXSTY
  7
Standard
  9
$DIMAUNIT
 70
     0
  9
$DIMADEC
 70
     0
  9
$DIMALTRND
 40
0.0
  9
$DIMAZIN
 70
     2
  9
$DIMDSEP
 70
    46
  9
$DIMATFIT
 70
     3
  9
$DIMFRAC
 70
     0
  9
$DIMLDRBLK
  1

  9
$DIMLUNIT
 70
     2
  9
$DIMLWD
 70
    -2
  9
$DIMLWE
 70
    -2
  9
$DIMTMOVE
 70
     0
  9
$DIMFXL
 40
1.0
  9
$DIMFXLON
 70
     0
  9
$DIMJOGANG
 40
0.7853981633974483
  9
$DIMTFILL
 70
     0
  9
$DIMTFILLCLR
 70
     0
  9
$DIMARCSYM
 70
     0
  9
$DIMLTYPE
  6

  9
$DIMLTEX1
  6

  9
$DIMLTEX2
  6

  9
$DIMTXTDIRECTION
 70
     0
  9
$LUNITS
 70
     2
  9
$LUPREC
 70
     4
  9
$SKETCHINC
 40
0.1
  9
$FILLETRAD
 40
0.5
  9
$AUNITS
 70
     0
  9
$AUPREC
 70
     0
  9
$MENU
  1
.
  9
$ELEVATION
 40
0.0
  9
$PELEVATION
 40
0.0
  9
$THICKNESS
 40
0.0
  9
$LIMCHECK
 70
     0
  9
$CHAMFERA
 40
0.0
  9
$CHAMFERB
 40
0.0
  9
$CHAMFERC
 40
0.0
  9
$CHAMFERD
 40
0.0
  9
$SKPOLY
 70
     0
  9
$TDCREATE
 40
2459079.463151412
  9
$TDUCREATE
 40
2459079.671484746
  9
$TDUPDATE
 40
2459079.463155359
  9
$TDUUPDATE
 40
2459079.671488692
  9
$TDINDWG
 40
0.0000000116
  9
$TDUSRTIMER
 40
0.0000000116
  9
$USRTIMER
 70
     1
  9
$ANGBASE
 50
0.0
  9
$ANGDIR
 70
     0
  9
$PDMODE
 70
     0
  9
$PDSIZE
 40
0.0
  9
$PLINEWID
 40
0.0
  9
$SPLFRAME
 70
     0
  9
$SPLINETYPE
 70
     6
  9
$SPLINESEGS
 70
     8
  9
$HANDSEED
  5
67A
  9
$SURFTAB1
 70
     6
  9
$SURFTAB2
 70
     6
  9
$SURFTYPE
 70
     6
  9
$SURFU
 70
     6
  9
$SURFV
 70
     6
  9
$UCSBASE
  2

  9
$UCSNAME
  2

  9
$UCSORG
 10
0.0
 20
0.0
 30
0.0
  9
$UCSXDIR
 10
1.0
 20
0.0
 30
0.0
  9
$UCSYDIR
 10
0.0
 20
1.0
 30
0.0
  9
$UCSORTHOREF
  2

  9
$UCSORTHOVIEW
 70
     0
  9
$UCSORGTOP
 10
0.0
 20
0.0
 30
0.0
  9
$UCSORGBOTTOM
 10
0.0
 20
0.0
 30
0.0
  9
$UCSORGLEFT
 10
0.0
 20
0.0
 30
0.0
  9
$UCSORGRIGHT
 10
0.0
 20
0.0
 30
0.0
  9
$UCSORGFRONT
 10
0.0
 20
0.0
 30
0.0
  9
$UCSORGBACK
 10
0.0
 20
0.0
 30
0.0
  9
$PUCSBASE
  2

  9
$PUCSNAME
  2

  9
$PUCSORG
 10
0.0
 20
0.0
 30
0.0
  9
$PUCSXDIR
 10
1.0
 20
0.0
 30
0.0
  9
$PUCSYDIR
 10
0.0
 20
1.0
 30
0.0
  9
$PUCSORTHOREF
  2

  9
$PUCSORTHOVIEW
 70
     0
  9
$PUCSORGTOP
 10
0.0
 20
0.0
 30
0.0
  9
$PUCSORGBOTTOM
 10
0.0
 20
0.0
 30
0.0
  9
$PUCSORGLEFT
 10
0.0
 20
0.0
 30
0.0
  9
$PUCSORGRIGHT
 10
0.0
 20
0.0
 30
0.0
  9
$PUCSORGFRONT
 10
0.0
 20
0.0
 30
0.0
  9
$PUCSORGBACK
 10
0.0
 20
0.0
 30
0.0
  9
$USERI1
 70
     0
  9
$USERI2
 70
     0
  9
$USERI3
 70
     0
  9
$USERI4
 70
     0
  9
$USERI5
 70
     0
  9
$USERR1
 40
0.0
  9
$USERR2
 40
0.0
  9
$USERR3
 40
0.0
  9
$USERR4
 40
0.0
  9
$USERR5
 40
0.0
  9
$WORLDVIEW
 70
     1
  9
$SHADEDGE
 70
     3
  9
$SHADEDIF
 70
    70
  9
$TILEMODE
 70
     1
  9
$MAXACTVP
 70
    64
  9
$PINSBASE
 10
0.0
 20
0.0
 30
0.0
  9
$PLIMCHECK
 70
     0
  9
$PEXTMIN
 10
0.0
 20
0.0
 30
0.0
  9
$PEXTMAX
 10
0.0
 20
0.0
 30
0.0
  9
$PLIMMIN
 10
-20.0
 20
-7.5
  9
$PLIMMAX
 10
277.0
 20
202.5
  9
$UNITMODE
 70
     0
  9
$VISRETAIN
 70
     1
  9
$PLINEGEN
 70
     0
  9
$PSLTSCALE
 70
     1
  9
$TREEDEPTH
 70
  3020
  9
$CMLSTYLE
  2
Standard
  9
$CMLJUST
 70
     0
  9
$CMLSCALE
 40
1.0
  9
$PROXYGRAPHICS
 70
     1
  9
$MEASUREMENT
 70
     1
  9
$CELWEIGHT
370
    -1
  9
$ENDCAPS
280
     0
  9
$JOINSTYLE
280
     0
  9
$LWDISPLAY
290
     0
  9
$INSUNITS
 70
     4
  9
$HYPERLINKBASE
  1

  9
$STYLESHEET
  1

  9
$XEDIT
290
     1
  9
$CEPSNTYPE
380
     0
  9
$PSTYLEMODE
290
     1
  9
$FINGERPRINTGUID
  2
{3d940b2e-9bba-4f5b-adb1-0ec779dfe93c}
  9
$VERSIONGUID
  2
{FAEB1C32-E019-11D5-929B-00C0DF256EC4}
  9
$EXTNAMES
290
     1
  9
$PSVPSCALE
 40
0.0
  9
$OLESTARTUP
290
     0
  9
$SORTENTS
280
   127
  9
$INDEXCTL
280
     0
  9
$HIDETEXT
280
     1
  9
$XCLIPFRAME
280
     2
  9
$HALOGAP
280
     0
  9
$OBSCOLOR
 70
   257
  9
$OBSLTYPE
280
     0
  9
$INTERSECTIONDISPLAY
280
     0
  9
$INTERSECTIONCOLOR
 70
   257
  9
$DIMASSOC
280
     2
  9
$PROJECTNAME
  1

  9
$CAMERADISPLAY
290
     0
  9
$LENSLENGTH
 40
50.0
  9
$CAMERAHEIGHT
 40
0.0
  9
$STEPSPERSEC
 40
2.0
  9
$STEPSIZE
 40
6.0
  9
$3DDWFPREC
 40
2.0
  9
$PSOLWIDTH
 40
0.25
  9
$PSOLHEIGHT
 40
4.0
  9
$LOFTANG1
 40
1.570796326794897
  9
$LOFTANG2
 40
1.570796326794897
  9
$LOFTMAG1
 40
0.0
  9
$LOFTMAG2
 40
0.0
  9
$LOFTPARAM
 70
     7
  9
$LOFTNORMALS
280
     1
  9
$LATITUDE
 40
37.795
  9
$LONGITUDE
 40
-122.394
  9
$NORTHDIRECTION
 40
0.0
  9
$TIMEZONE
 70
 -8000
  9
$LIGHTGLYPHDISPLAY
280
     1
  9
$TILEMODELIGHTSYNCH
280
     1
  9
$CMATERIAL
347
569
  9
$SOLIDHIST
280
     0
  9
$SHOWHIST
280
     1
  9
$DWFFRAME
280
     2
  9
$DGNFRAME
280
     2
  9
$REALWORLDSCALE
290
     1
  9
$INTERFERECOLOR
 62
   256
  9
$CSHADOW
280
     0
  9
$SHADOWPLANELOCATION
 40
0.0
  0
ENDSEC
  0
SECTION
  2
CLASSES
  0
CLASS
  1
ACDBDICTIONARYWDFLT
  2
AcDbDictionaryWithDefault
  3
ObjectDBX Classes
 90
        0
 91
        3
280
     0
281
     0
  0
CLASS
  1
VISUALSTYLE
  2
AcDbVisualStyle
  3
ObjectDBX Classes
 90
     4095
 91
        3
280
     0
281
     0
  0
CLASS
  1
MATERIAL
  2
AcDbMaterial
  3
ObjectDBX Classes
 90
     1153
 91
        3
280
     0
281
     0
  0
CLASS
  1
SCALE
  2
AcDbScale
  3
ObjectDBX Classes
 90
     1153
 91
        3
280
     0
281
     0
  0
CLASS
  1
TABLESTYLE
  2
AcDbTableStyle
  3
ObjectDBX Classes
 90
     4095
 91
        3
280
     0
281
     0
  0
CLASS
  1
MLEADERSTYLE
  2
AcDbMLeaderStyle
  3
ACDB_MLEADERSTYLE_CLASS
 90
     4095
 91
        3
280
     0
281
     0
  0
CLASS
  1
SUN
  2
AcDbSun
  3
SCENEOE
 90
     1153
 91
        3
280
     0
281
     0
  0
CLASS
  1
DICTIONARYVAR
  2
AcDbDictionaryVar
  3
ObjectDBX Classes
 90
        0
 91
        3
280
     0
281
     0
  0
CLASS
  1
CELLSTYLEMAP
  2
AcDbCellStyleMap
  3
ObjectDBX Classes
 90
     1152
 91
        3
280
     0
281
     0
  0
ENDSEC
  0
SECTION
  2
TABLES
  0
TABLE
  2
VPORT
  5
52E
330
0
100
AcDbSymbolTable
 70
     1
  0
VPORT
  5
54E
330
52E
100
AcDbSymbolTableRecord
100
AcDbViewportTableRecord
  2
*Active
 70
     0
 10
0.0
 20
0.0
 11
1.0
 21
1.0
 12
189.6360697399527
 22
153.2023354639115
 13
0.0
 23
0.0
 14
0.5
 24
0.5
 15
0.5
 25
0.5
 16
0.0
 26
0.0
 36
1.0
 17
0.0
 27
0.0
 37
0.0
 40
249.3463356973995
 41
1.99205298013245
 42
50.0
 43
0.0
 44
0.0
 50
0.0
 51
0.0
 71
     0
 72
   100
 73
     1
 74
     3
 75
     0
 76
     0
 77
     0
 78
     0
281
     0
 65
     1
110
0.0
120
0.0
130
0.0
111
1.0
121
0.0
131
0.0
112
0.0
122
1.0
132
0.0
 79
     0
146
0.0
348
554
 60
     3
 61
     5
292
     1
282
     1
141
0.0
142
0.0
 63
   250
361
592
  0
ENDTAB
  0
TABLE
  2
LTYPE
  5
52B
330
0
100
AcDbSymbolTable
 70
    48
  0
LTYPE
  5
539
330
52B
100
AcDbSymbolTableRecord
100
AcDbLinetypeTableRecord
  2
ByBlock
 70
     0
  3

 72
    65
 73
     0
 40
0.0
  0
LTYPE
  5
53A
330
52B
100
AcDbSymbolTableRecord
100
AcDbLinetypeTableRecord
  2
ByLayer
 70
     0
  3

 72
    65
 73
     0
 40
0.0
  0
LTYPE
  5
53B
330
52B
100
AcDbSymbolTableRecord
100
AcDbLinetypeTableRecord
  2
Continuous
 70
     0
  3
Solid line
 72
    65
 73
     0
 40
0.0
  0
LTYPE
  5
5CE
330
52B
100
AcDbSymbolTableRecord
100
AcDbLinetypeTableRecord
  2
ACAD_ISO10W100
 70
     0
  3
ISO dash dot __ . __ . __ . __ . __ . __ . __ . 
 72
    65
 73
     4
 40
18.0
 49
12.0
 74
     0
 49
-3.0
 74
     0
 49
0.0
 74
     0
 49
-3.0
 74
     0
  0
LTYPE
  5
5CF
330
52B
100
AcDbSymbolTableRecord
100
AcDbLinetypeTableRecord
  2
BORDER
 70
     0
  3
Border __ __ . __ __ . __ __ . __ __ . __ __ .
 72
    65
 73
     6
 40
44.45
 49
12.7
 74
     0
 49
-6.35
 74
     0
 49
12.7
 74
     0
 49
-6.35
 74
     0
 49
0.0
 74
     0
 49
-6.35
 74
     0
  0
LTYPE
  5
5D2
330
52B
100
AcDbSymbolTableRecord
100
AcDbLinetypeTableRecord
  2
BATTING
 70
     0
  3
Batting SSSSSSSSSSSSSSSSSSSSSSSSSSSSSSSSSSSSSSSSSSSSSSS
 72
    65
 73
     4
 40
10.16254
 49
0.00254
 74
     0
 49
-2.54
 74
     2
 75
     0
340
5D0
 46
2.54
 50
0.0
 44
-2.54
 45
0.0
  9
BAT
 49
-5.08
 74
     2
 75
     0
340
5D1
 46
2.54
 50
180.0
 44
2.54
 45
0.0
  9
BAT
 49
-2.54
 74
     0
  0
LTYPE
  5
5D3
330
52B
100
AcDbSymbolTableRecord
100
AcDbLinetypeTableRecord
  2
ACAD_ISO15W100
 70
     0
  3
ISO double-dash triple-dot __ __ . . . __ __ . .
 72
    65
 73
    10
 40
39.0
 49
12.0
 74
     0
 49
-3.0
 74
     0
 49
12.0
 74
     0
 49
-3.0
 74
     0
 49
0.0
 74
     0
 49
-3.0
 74
     0
 49
0.0
 74
     0
 49
-3.0
 74
     0
 49
0.0
 74
     0
 49
-3.0
 74
     0
  0
LTYPE
  5
5D4
330
52B
100
AcDbSymbolTableRecord
100
AcDbLinetypeTableRecord
  2
ACAD_ISO14W100
 70
     0
  3
ISO dash triple-dot __ . . . __ . . . __ . . . _
 72
    65
 73
     8
 40
24.0
 49
12.0
 74
     0
 49
-3.0
 74
     0
 49
0.0
 74
     0
 49
-3.0
 74
     0
 49
0.0
 74
     0
 49
-3.0
 74
     0
 49
0.0
 74
     0
 49
-3.0
 74
     0
  0
LTYPE
  5
5D5
330
52B
100
AcDbSymbolTableRecord
100
AcDbLinetypeTableRecord
  2
CENTER2
 70
     0
  3
Center (.5x) ___ _ ___ _ ___ _ ___ _ ___ _ ___
 72
    65
 73
     4
 40
28.575
 49
19.05
 74
     0
 49
-3.175
 74
     0
 49
3.175
 74
     0
 49
-3.175
 74
     0
  0
LTYPE
  5
5D6
330
52B
100
AcDbSymbolTableRecord
100
AcDbLinetypeTableRecord
  2
CENTER
 70
     0
  3
Center ____ _ ____ _ ____ _ ____ _ ____ _ ____
 72
    65
 73
     4
 40
50.8
 49
31.75
 74
     0
 49
-6.35
 74
     0
 49
6.35
 74
     0
 49
-6.35
 74
     0
  0
LTYPE
  5
5D7
330
52B
100
AcDbSymbolTableRecord
100
AcDbLinetypeTableRecord
  2
BORDERX2
 70
     0
  3
Border (2x) ____  ____  .  ____  ____  .  ___
 72
    65
 73
     6
 40
88.89999999999999
 49
25.4
 74
     0
 49
-12.7
 74
     0
 49
25.4
 74
     0
 49
-12.7
 74
     0
 49
0.0
 74
     0
 49
-12.7
 74
     0
  0
LTYPE
  5
5D8
330
52B
100
AcDbSymbolTableRecord
100
AcDbLinetypeTableRecord
  2
BORDER2
 70
     0
  3
Border (.5x) __.__.__.__.__.__.__.__.__.__.__.
 72
    65
 73
     6
 40
22.225
 49
6.35
 74
     0
 49
-3.175
 74
     0
 49
6.35
 74
     0
 49
-3.175
 74
     0
 49
0.0
 74
     0
 49
-3.175
 74
     0
  0
LTYPE
  5
5D9
330
52B
100
AcDbSymbolTableRecord
100
AcDbLinetypeTableRecord
  2
DASHDOTX2
 70
     0
  3
Dash dot (2x) ____  .  ____  .  ____  .  ___
 72
    65
 73
     4
 40
50.8
 49
25.4
 74
     0
 49
-12.7
 74
     0
 49
0.0
 74
     0
 49
-12.7
 74
     0
  0
LTYPE
  5
5DA
330
52B
100
AcDbSymbolTableRecord
100
AcDbLinetypeTableRecord
  2
DASHDOT2
 70
     0
  3
Dash dot (.5x) _._._._._._._._._._._._._._._.
 72
    65
 73
     4
 40
12.7
 49
6.35
 74
     0
 49
-3.175
 74
     0
 49
0.0
 74
     0
 49
-3.175
 74
     0
  0
LTYPE
  5
5DB
330
52B
100
AcDbSymbolTableRecord
100
AcDbLinetypeTableRecord
  2
DASHDOT
 70
     0
  3
Dash dot __ . __ . __ . __ . __ . __ . __ . __
 72
    65
 73
     4
 40
25.4
 49
12.7
 74
     0
 49
-6.35
 74
     0
 49
0.0
 74
     0
 49
-6.35
 74
     0
  0
LTYPE
  5
5DC
330
52B
100
AcDbSymbolTableRecord
100
AcDbLinetypeTableRecord
  2
CENTERX2
 70
     0
  3
Center (2x) ________  __  ________  __  _____
 72
    65
 73
     4
 40
101.6
 49
63.5
 74
     0
 49
-12.7
 74
     0
 49
12.7
 74
     0
 49
-12.7
 74
     0
  0
LTYPE
  5
5DD
330
52B
100
AcDbSymbolTableRecord
100
AcDbLinetypeTableRecord
  2
DIVIDE
 70
     0
  3
Divide ____ . . ____ . . ____ . . ____ . . ____
 72
    65
 73
     6
 40
31.75
 49
12.7
 74
     0
 49
-6.35
 74
     0
 49
0.0
 74
     0
 49
-6.35
 74
     0
 49
0.0
 74
     0
 49
-6.35
 74
     0
  0
LTYPE
  5
5DE
330
52B
100
AcDbSymbolTableRecord
100
AcDbLinetypeTableRecord
  2
DASHEDX2
 70
     0
  3
Dashed (2x) ____  ____  ____  ____  ____  ___
 72
    65
 73
     2
 40
38.09999999999999
 49
25.4
 74
     0
 49
-12.7
 74
     0
  0
LTYPE
  5
5DF
330
52B
100
AcDbSymbolTableRecord
100
AcDbLinetypeTableRecord
  2
DASHED2
 70
     0
  3
Dashed (.5x) _ _ _ _ _ _ _ _ _ _ _ _ _ _ _ _ _ 
 72
    65
 73
     2
 40
9.524999999999999
 49
6.35
 74
     0
 49
-3.175
 74
     0
  0
LTYPE
  5
5E0
330
52B
100
AcDbSymbolTableRecord
100
AcDbLinetypeTableRecord
  2
DASHED
 70
     0
  3
Dashed __ __ __ __ __ __ __ __ __ __ __ __ __ _
 72
    65
 73
     2
 40
19.05
 49
12.7
 74
     0
 49
-6.35
 74
     0
  0
LTYPE
  5
5E1
330
52B
100
AcDbSymbolTableRecord
100
AcDbLinetypeTableRecord
  2
DOT2
 70
     0
  3
Dot (.5x) ........................................
 72
    65
 73
     2
 40
3.175
 49
0.0
 74
     0
 49
-3.175
 74
     0
  0
LTYPE
  5
5E2
330
52B
100
AcDbSymbolTableRecord
100
AcDbLinetypeTableRecord
  2
DOT
 70
     0
  3
Dot . . . . . . . . . . . . . . . . . . . . . . . .
 72
    65
 73
     2
 40
6.35
 49
0.0
 74
     0
 49
-6.35
 74
     0
  0
LTYPE
  5
5E3
330
52B
100
AcDbSymbolTableRecord
100
AcDbLinetypeTableRecord
  2
DIVIDEX2
 70
     0
  3
Divide (2x) ________  .  .  ________  .  .  _
 72
    65
 73
     6
 40
63.5
 49
25.4
 74
     0
 49
-12.7
 74
     0
 49
0.0
 74
     0
 49
-12.7
 74
     0
 49
0.0
 74
     0
 49
-12.7
 74
     0
  0
LTYPE
  5
5E4
330
52B
100
AcDbSymbolTableRecord
100
AcDbLinetypeTableRecord
  2
DIVIDE2
 70
     0
  3
Divide (.5x) __..__..__..__..__..__..__..__.._
 72
    65
 73
     6
 40
15.875
 49
6.35
 74
     0
 49
-3.175
 74
     0
 49
0.0
 74
     0
 49
-3.175
 74
     0
 49
0.0
 74
     0
 49
-3.175
 74
     0
  0
LTYPE
  5
5E6
330
52B
100
AcDbSymbolTableRecord
100
AcDbLinetypeTableRecord
  2
FENCELINE1
 70
     0
  3
Fenceline circle ----0-----0----0-----0----0-----0--
 72
    65
 73
     4
 40
36.83
 49
6.35
 74
     0
 49
-2.54
 74
     2
 75
     0
340
5E5
 46
2.54
 50
0.0
 44
-2.54
 45
0.0
  9
CIRC1
 49
-2.54
 74
     0
 49
25.4
 74
     0
  0
LTYPE
  5
5E8
330
52B
100
AcDbSymbolTableRecord
100
AcDbLinetypeTableRecord
  2
DRAINAGE2
 70
     0
  3
Drainage reversed----<----<----<----
 72
    65
 73
     2
 40
10.16
 49
5.08
 74
     2
 75
     0
340
5E7
 46
2.54
 50
0.0
 44
0.0
 45
0.0
  9
RIGHT_ARROW
 49
5.08
 74
     0
  0
LTYPE
  5
5EA
330
52B
100
AcDbSymbolTableRecord
100
AcDbLinetypeTableRecord
  2
DRAINAGE
 70
     0
  3
Drainage ---->---->---->----
 72
    65
 73
     2
 40
10.16
 49
5.08
 74
     2
 75
     0
340
5E9
 46
2.54
 50
180.0
 44
0.0
 45
0.0
  9
RIGHT_ARROW
 49
5.08
 74
     0
  0
LTYPE
  5
5EB
330
52B
100
AcDbSymbolTableRecord
100
AcDbLinetypeTableRecord
  2
DOTX2
 70
     0
  3
Dot (2x) .  .  .  .  .  .  .  .  .  .  .  .  .  .
 72
    65
 73
     2
 40
12.7
 49
0.0
 74
     0
 49
-12.7
 74
     0
  0
LTYPE
  5
5EC
330
52B
100
AcDbSymbolTableRecord
100
AcDbLinetypeTableRecord
  2
HIDDEN2
 70
     0
  3
Hidden (.5x) _ _ _ _ _ _ _ _ _ _ _ _ _ _ _ _ _ 
 72
    65
 73
     2
 40
4.762499999999999
 49
3.175
 74
     0
 49
-1.5875
 74
     0
  0
LTYPE
  5
5ED
330
52B
100
AcDbSymbolTableRecord
100
AcDbLinetypeTableRecord
  2
HIDDEN
 70
     0
  3
Hidden __ __ __ __ __ __ __ __ __ __ __ __ __ __
 72
    65
 73
     2
 40
9.524999999999999
 49
6.35
 74
     0
 49
-3.175
 74
     0
  0
LTYPE
  5
5EF
330
52B
100
AcDbSymbolTableRecord
100
AcDbLinetypeTableRecord
  2
GAS_LINE
 70
     0
  3
Gas line ----GAS----GAS----GAS----GAS----GAS----GAS--
 72
    65
 73
     3
 40
24.13
 49
12.7
 74
     0
 49
-5.08
 74
     2
 75
     0
340
5EE
 46
2.54
 50
0.0
 44
-2.54
 45
-1.27
  9
GAS
 49
-6.35
 74
     0
  0
LTYPE
  5
5F1
330
52B
100
AcDbSymbolTableRecord
100
AcDbLinetypeTableRecord
  2
FENCELINE2
 70
     0
  3
Fenceline square ----[]-----[]----[]-----[]----[]---
 72
    65
 73
     4
 40
36.83
 49
6.35
 74
     0
 49
-2.54
 74
     2
 75
     0
340
5F0
 46
2.54
 50
0.0
 44
-2.54
 45
0.0
  9
BOX
 49
-2.54
 74
     0
 49
25.4
 74
     0
  0
LTYPE
  5
5F2
330
52B
100
AcDbSymbolTableRecord
100
AcDbLinetypeTableRecord
  2
PHANTOM2
 70
     0
  3
Phantom (.5x) ___ _ _ ___ _ _ ___ _ _ ___ _ _
 72
    65
 73
     6
 40
31.75
 49
15.875
 74
     0
 49
-3.175
 74
     0
 49
3.175
 74
     0
 49
-3.175
 74
     0
 49
3.175
 74
     0
 49
-3.175
 74
     0
  0
LTYPE
  5
5F3
330
52B
100
AcDbSymbolTableRecord
100
AcDbLinetypeTableRecord
  2
PHANTOM
 70
     0
  3
Phantom ______  __  __  ______  __  __  ______ 
 72
    65
 73
     6
 40
63.50000000000001
 49
31.75
 74
     0
 49
-6.35
 74
     0
 49
6.35
 74
     0
 49
-6.35
 74
     0
 49
6.35
 74
     0
 49
-6.35
 74
     0
  0
LTYPE
  5
5F5
330
52B
100
AcDbSymbolTableRecord
100
AcDbLinetypeTableRecord
  2
HOT_WATER_SUPPLY
 70
     0
  3
Hot water supply ---- HW ---- HW ---- HW ----
 72
    65
 73
     3
 40
22.86
 49
12.7
 74
     0
 49
-5.08
 74
     2
 75
     0
340
5F4
 46
2.54
 50
0.0
 44
-2.54
 45
-1.27
  9
HW
 49
-5.08
 74
     0
  0
LTYPE
  5
5F6
330
52B
100
AcDbSymbolTableRecord
100
AcDbLinetypeTableRecord
  2
HIDDENX2
 70
     0
  3
Hidden (2x) ____ ____ ____ ____ ____ ____ ____ 
 72
    65
 73
     2
 40
19.05
 49
12.7
 74
     0
 49
-6.35
 74
     0
  0
LTYPE
  5
5F9
330
52B
100
AcDbSymbolTableRecord
100
AcDbLinetypeTableRecord
  2
ZIGZAG
 70
     0
  3
Zig zag /\/\/\/\/\/\/\/\/\/\/\/\/\/\/\/\/\/\/\/\/\/\/\/
 72
    65
 73
     4
 40
20.32254
 49
0.00254
 74
     0
 49
-5.08
 74
     2
 75
     0
340
5F7
 46
5.08
 50
0.0
 44
-5.08
 45
0.0
  9
ZIG
 49
-10.16
 74
     2
 75
     0
340
5F8
 46
5.08
 50
180.0
 44
5.08
 45
0.0
  9
ZIG
 49
-5.08
 74
     0
  0
LTYPE
  5
5FB
330
52B
100
AcDbSymbolTableRecord
100
AcDbLinetypeTableRecord
  2
TRACKS
 70
     0
  3
Tracks -|-|-|-|-|-|-|-|-|-|-|-|-|-|-|-|-|-|-|-|-|-|-|-|-
 72
    65
 73
     2
 40
7.62
 49
3.81
 74
     2
 75
     0
340
5FA
 46
6.35
 50
0.0
 44
0.0
 45
0.0
  9
TRACK1
 49
3.81
 74
     0
  0
LTYPE
  5
5FC
330
52B
100
AcDbSymbolTableRecord
100
AcDbLinetypeTableRecord
  2
PHANTOMX2
 70
     0
  3
Phantom (2x) ____________    ____    ____   _
 72
    65
 73
     6
 40
127.0
 49
63.5
 74
     0
 49
-12.7
 74
     0
 49
12.7
 74
     0
 49
-12.7
 74
     0
 49
12.7
 74
     0
 49
-12.7
 74
     0
  0
LTYPE
  5
5FD
330
52B
100
AcDbSymbolTableRecord
100
AcDbLinetypeTableRecord
  2
ACAD_ISO05W100
 70
     0
  3
ISO long-dash double-dot ____ .. ____ .. ____ . 
 72
    65
 73
     6
 40
33.0
 49
24.0
 74
     0
 49
-3.0
 74
     0
 49
0.0
 74
     0
 49
-3.0
 74
     0
 49
0.0
 74
     0
 49
-3.0
 74
     0
  0
LTYPE
  5
5FE
330
52B
100
AcDbSymbolTableRecord
100
AcDbLinetypeTableRecord
  2
ACAD_ISO04W100
 70
     0
  3
ISO long-dash dot ____ . ____ . ____ . ____ . _
 72
    65
 73
     4
 40
30.0
 49
24.0
 74
     0
 49
-3.0
 74
     0
 49
0.0
 74
     0
 49
-3.0
 74
     0
  0
LTYPE
  5
5FF
330
52B
100
AcDbSymbolTableRecord
100
AcDbLinetypeTableRecord
  2
ACAD_ISO03W100
 70
     0
  3
ISO dash space __    __    __    __    __    __
 72
    65
 73
     2
 40
30.0
 49
12.0
 74
     0
 49
-18.0
 74
     0
  0
LTYPE
  5
600
330
52B
100
AcDbSymbolTableRecord
100
AcDbLinetypeTableRecord
  2
ACAD_ISO02W100
 70
     0
  3
ISO dash __ __ __ __ __ __ __ __ __ __ __ __ __
 72
    65
 73
     2
 40
15.0
 49
12.0
 74
     0
 49
-3.0
 74
     0
  0
LTYPE
  5
601
330
52B
100
AcDbSymbolTableRecord
100
AcDbLinetypeTableRecord
  2
ACAD_ISO09W100
 70
     0
  3
ISO long-dash double-short-dash ____ __ __ ____
 72
    65
 73
     6
 40
45.0
 49
24.0
 74
     0
 49
-3.0
 74
     0
 49
6.0
 74
     0
 49
-3.0
 74
     0
 49
6.0
 74
     0
 49
-3.0
 74
     0
  0
LTYPE
  5
602
330
52B
100
AcDbSymbolTableRecord
100
AcDbLinetypeTableRecord
  2
ACAD_ISO08W100
 70
     0
  3
ISO long-dash short-dash ____ __ ____ __ ____ _
 72
    65
 73
     4
 40
36.0
 49
24.0
 74
     0
 49
-3.0
 74
     0
 49
6.0
 74
     0
 49
-3.0
 74
     0
  0
LTYPE
  5
603
330
52B
100
AcDbSymbolTableRecord
100
AcDbLinetypeTableRecord
  2
ACAD_ISO07W100
 70
     0
  3
ISO dot . . . . . . . . . . . . . . . . . . . . 
 72
    65
 73
     2
 40
3.0
 49
0.0
 74
     0
 49
-3.0
 74
     0
  0
LTYPE
  5
604
330
52B
100
AcDbSymbolTableRecord
100
AcDbLinetypeTableRecord
  2
ACAD_ISO06W100
 70
     0
  3
ISO long-dash triple-dot ____ ... ____ ... ____
 72
    65
 73
     8
 40
36.0
 49
24.0
 74
     0
 49
-3.0
 74
     0
 49
0.0
 74
     0
 49
-3.0
 74
     0
 49
0.0
 74
     0
 49
-3.0
 74
     0
 49
0.0
 74
     0
 49
-3.0
 74
     0
  0
LTYPE
  5
605
330
52B
100
AcDbSymbolTableRecord
100
AcDbLinetypeTableRecord
  2
ACAD_ISO13W100
 70
     0
  3
ISO double-dash double-dot __ __ . . __ __ . . _
 72
    65
 73
     8
 40
36.0
 49
12.0
 74
     0
 49
-3.0
 74
     0
 49
12.0
 74
     0
 49
-3.0
 74
     0
 49
0.0
 74
     0
 49
-3.0
 74
     0
 49
0.0
 74
     0
 49
-3.0
 74
     0
  0
LTYPE
  5
606
330
52B
100
AcDbSymbolTableRecord
100
AcDbLinetypeTableRecord
  2
ACAD_ISO12W100
 70
     0
  3
ISO dash double-dot __ . . __ . . __ . . __ . . 
 72
    65
 73
     6
 40
21.0
 49
12.0
 74
     0
 49
-3.0
 74
     0
 49
0.0
 74
     0
 49
-3.0
 74
     0
 49
0.0
 74
     0
 49
-3.0
 74
     0
  0
LTYPE
  5
607
330
52B
100
AcDbSymbolTableRecord
100
AcDbLinetypeTableRecord
  2
ACAD_ISO11W100
 70
     0
  3
ISO double-dash dot __ __ . __ __ . __ __ . __ _
 72
    65
 73
     6
 40
33.0
 49
12.0
 74
     0
 49
-3.0
 74
     0
 49
12.0
 74
     0
 49
-3.0
 74
     0
 49
0.0
 74
     0
 49
-3.0
 74
     0
  0
ENDTAB
  0
TABLE
  2
LAYER
  5
529
330
0
100
AcDbSymbolTable
 70
     1
  0
LAYER
  5
536
330
529
100
AcDbSymbolTableRecord
100
AcDbLayerTableRecord
  2
0
 70
     0
 62
     7
  6
Continuous
370
     0
390
535
347
56B
348
0
  0
ENDTAB
  0
TABLE
  2
STYLE
  5
52A
330
0
100
AcDbSymbolTable
 70
   116
  0
STYLE
  5
537
330
52A
100
AcDbSymbolTableRecord
100
AcDbTextStyleTableRecord
  2
Standard
 70
     0
 40
0.0
 41
1.0
 50
0.0
 71
     0
 42
0.2
  3
txt
  4

  0
STYLE
  5
5CC
330
52A
100
AcDbSymbolTableRecord
100
AcDbTextStyleTableRecord
  2
QCADDimTextStyle
 70
     0
 40
0.0
 41
1.0
 50
0.0
 71
     0
 42
0.2
  3
txt
  4

  0
STYLE
  5
5D0
330
52A
100
AcDbSymbolTableRecord
100
AcDbTextStyleTableRecord
  2
textstyle0
 70
     0
 40
0.0
 41
1.0
 50
0.0
 71
     0
 42
0.2
  3
ltypeshp.shx
  4

  0
STYLE
  5
5D1
330
52A
100
AcDbSymbolTableRecord
100
AcDbTextStyleTableRecord
  2
textstyle1
 70
     0
 40
0.0
 41
1.0
 50
0.0
 71
     0
 42
0.2
  3
ltypeshp.shx
  4

  0
STYLE
  5
5E5
330
52A
100
AcDbSymbolTableRecord
100
AcDbTextStyleTableRecord
  2
textstyle2
 70
     0
 40
0.0
 41
1.0
 50
0.0
 71
     0
 42
0.2
  3
ltypeshp.shx
  4

  0
STYLE
  5
5E7
330
52A
100
AcDbSymbolTableRecord
100
AcDbTextStyleTableRecord
  2
textstyle3
 70
     0
 40
0.0
 41
1.0
 50
0.0
 71
     0
 42
0.2
  3
qcadshp.shx
  4

  0
STYLE
  5
5E9
330
52A
100
AcDbSymbolTableRecord
100
AcDbTextStyleTableRecord
  2
textstyle4
 70
     0
 40
0.0
 41
1.0
 50
0.0
 71
     0
 42
0.2
  3
qcadshp.shx
  4

  0
STYLE
  5
5EE
330
52A
100
AcDbSymbolTableRecord
100
AcDbTextStyleTableRecord
  2
textstyle5
 70
     0
 40
0.0
 41
1.0
 50
0.0
 71
     0
 42
0.2
  3
STANDARD
  4

  0
STYLE
  5
5F0
330
52A
100
AcDbSymbolTableRecord
100
AcDbTextStyleTableRecord
  2
textstyle6
 70
     0
 40
0.0
 41
1.0
 50
0.0
 71
     0
 42
0.2
  3
ltypeshp.shx
  4

  0
STYLE
  5
5F4
330
52A
100
AcDbSymbolTableRecord
100
AcDbTextStyleTableRecord
  2
textstyle7
 70
     0
 40
0.0
 41
1.0
 50
0.0
 71
     0
 42
0.2
  3
STANDARD
  4

  0
STYLE
  5
5F7
330
52A
100
AcDbSymbolTableRecord
100
AcDbTextStyleTableRecord
  2
textstyle8
 70
     0
 40
0.0
 41
1.0
 50
0.0
 71
     0
 42
0.2
  3
ltypeshp.shx
  4

  0
STYLE
  5
5F8
330
52A
100
AcDbSymbolTableRecord
100
AcDbTextStyleTableRecord
  2
textstyle9
 70
     0
 40
0.0
 41
1.0
 50
0.0
 71
     0
 42
0.2
  3
ltypeshp.shx
  4

  0
STYLE
  5
5FA
330
52A
100
AcDbSymbolTableRecord
100
AcDbTextStyleTableRecord
  2
textstyle10
 70
     0
 40
0.0
 41
1.0
 50
0.0
 71
     0
 42
0.2
  3
ltypeshp.shx
  4

  0
STYLE
  5
60A
330
52A
100
AcDbSymbolTableRecord
100
AcDbTextStyleTableRecord
  2
textstyle11
 70
     0
 40
0.0
 41
1.0
 50
0.0
 71
     0
 42
0.2
  3
Standard
  4

1001
ACAD
1000
Standard
1071
        0
  0
STYLE
  5
60B
330
52A
100
AcDbSymbolTableRecord
100
AcDbTextStyleTableRecord
  2
textstyle12
 70
     0
 40
0.0
 41
1.0
 50
0.0
 71
     0
 42
0.2
  3
Standard
  4

1001
ACAD
1000
Standard
1071
        0
  0
STYLE
  5
60C
330
52A
100
AcDbSymbolTableRecord
100
AcDbTextStyleTableRecord
  2
textstyle13
 70
     0
 40
0.0
 41
1.0
 50
0.0
 71
     0
 42
0.2
  3
Standard
  4

1001
ACAD
1000
Standard
1071
        0
  0
STYLE
  5
60D
330
52A
100
AcDbSymbolTableRecord
100
AcDbTextStyleTableRecord
  2
textstyle14
 70
     0
 40
0.0
 41
1.0
 50
0.0
 71
     0
 42
0.2
  3
Standard
  4

1001
ACAD
1000
Standard
1071
        0
  0
STYLE
  5
60E
330
52A
100
AcDbSymbolTableRecord
100
AcDbTextStyleTableRecord
  2
textstyle15
 70
     0
 40
0.0
 41
1.0
 50
0.0
 71
     0
 42
0.2
  3
Standard
  4

1001
ACAD
1000
Standard
1071
        0
  0
STYLE
  5
60F
330
52A
100
AcDbSymbolTableRecord
100
AcDbTextStyleTableRecord
  2
textstyle16
 70
     0
 40
0.0
 41
1.0
 50
0.0
 71
     0
 42
0.2
  3
Standard
  4

1001
ACAD
1000
Standard
1071
        0
  0
STYLE
  5
610
330
52A
100
AcDbSymbolTableRecord
100
AcDbTextStyleTableRecord
  2
textstyle17
 70
     0
 40
0.0
 41
1.0
 50
0.0
 71
     0
 42
0.2
  3
Standard
  4

1001
ACAD
1000
Standard
1071
        0
  0
STYLE
  5
611
330
52A
100
AcDbSymbolTableRecord
100
AcDbTextStyleTableRecord
  2
textstyle18
 70
     0
 40
0.0
 41
1.0
 50
0.0
 71
     0
 42
0.2
  3
Standard
  4

1001
ACAD
1000
Standard
1071
        0
  0
STYLE
  5
612
330
52A
100
AcDbSymbolTableRecord
100
AcDbTextStyleTableRecord
  2
textstyle19
 70
     0
 40
0.0
 41
1.0
 50
0.0
 71
     0
 42
0.2
  3
Standard
  4

1001
ACAD
1000
Standard
1071
        0
  0
STYLE
  5
613
330
52A
100
AcDbSymbolTableRecord
100
AcDbTextStyleTableRecord
  2
textstyle20
 70
     0
 40
0.0
 41
1.0
 50
0.0
 71
     0
 42
0.2
  3
Standard
  4

1001
ACAD
1000
Standard
1071
        0
  0
STYLE
  5
614
330
52A
100
AcDbSymbolTableRecord
100
AcDbTextStyleTableRecord
  2
textstyle21
 70
     0
 40
0.0
 41
1.0
 50
0.0
 71
     0
 42
0.2
  3
Standard
  4

1001
ACAD
1000
Standard
1071
        0
  0
STYLE
  5
615
330
52A
100
AcDbSymbolTableRecord
100
AcDbTextStyleTableRecord
  2
textstyle22
 70
     0
 40
0.0
 41
1.0
 50
0.0
 71
     0
 42
0.2
  3
Standard
  4

1001
ACAD
1000
Standard
1071
        0
  0
STYLE
  5
616
330
52A
100
AcDbSymbolTableRecord
100
AcDbTextStyleTableRecord
  2
textstyle23
 70
     0
 40
0.0
 41
1.0
 50
0.0
 71
     0
 42
0.2
  3
Standard
  4

1001
ACAD
1000
Standard
1071
        0
  0
STYLE
  5
617
330
52A
100
AcDbSymbolTableRecord
100
AcDbTextStyleTableRecord
  2
textstyle24
 70
     0
 40
0.0
 41
1.0
 50
0.0
 71
     0
 42
0.2
  3
Standard
  4

1001
ACAD
1000
Standard
1071
        0
  0
STYLE
  5
618
330
52A
100
AcDbSymbolTableRecord
100
AcDbTextStyleTableRecord
  2
textstyle25
 70
     0
 40
0.0
 41
1.0
 50
0.0
 71
     0
 42
0.2
  3
Standard
  4

1001
ACAD
1000
Standard
1071
        0
  0
STYLE
  5
619
330
52A
100
AcDbSymbolTableRecord
100
AcDbTextStyleTableRecord
  2
textstyle26
 70
     0
 40
0.0
 41
1.0
 50
0.0
 71
     0
 42
0.2
  3
Standard
  4

1001
ACAD
1000
Standard
1071
        0
  0
STYLE
  5
61A
330
52A
100
AcDbSymbolTableRecord
100
AcDbTextStyleTableRecord
  2
textstyle27
 70
     0
 40
0.0
 41
1.0
 50
0.0
 71
     0
 42
0.2
  3
Standard
  4

1001
ACAD
1000
Standard
1071
        0
  0
STYLE
  5
61B
330
52A
100
AcDbSymbolTableRecord
100
AcDbTextStyleTableRecord
  2
textstyle28
 70
     0
 40
0.0
 41
1.0
 50
0.0
 71
     0
 42
0.2
  3
Standard
  4

1001
ACAD
1000
Standard
1071
        0
  0
STYLE
  5
61C
330
52A
100
AcDbSymbolTableRecord
100
AcDbTextStyleTableRecord
  2
textstyle29
 70
     0
 40
0.0
 41
1.0
 50
0.0
 71
     0
 42
0.2
  3
Standard
  4

1001
ACAD
1000
Standard
1071
        0
  0
STYLE
  5
61D
330
52A
100
AcDbSymbolTableRecord
100
AcDbTextStyleTableRecord
  2
textstyle30
 70
     0
 40
0.0
 41
1.0
 50
0.0
 71
     0
 42
0.2
  3
Standard
  4

1001
ACAD
1000
Standard
1071
        0
  0
STYLE
  5
61E
330
52A
100
AcDbSymbolTableRecord
100
AcDbTextStyleTableRecord
  2
textstyle31
 70
     0
 40
0.0
 41
1.0
 50
0.0
 71
     0
 42
0.2
  3
Standard
  4

1001
ACAD
1000
Standard
1071
        0
  0
STYLE
  5
61F
330
52A
100
AcDbSymbolTableRecord
100
AcDbTextStyleTableRecord
  2
textstyle32
 70
     0
 40
0.0
 41
1.0
 50
0.0
 71
     0
 42
0.2
  3
Standard
  4

1001
ACAD
1000
Standard
1071
        0
  0
STYLE
  5
620
330
52A
100
AcDbSymbolTableRecord
100
AcDbTextStyleTableRecord
  2
textstyle33
 70
     0
 40
0.0
 41
1.0
 50
0.0
 71
     0
 42
0.2
  3
Standard
  4

1001
ACAD
1000
Standard
1071
        0
  0
STYLE
  5
621
330
52A
100
AcDbSymbolTableRecord
100
AcDbTextStyleTableRecord
  2
textstyle34
 70
     0
 40
0.0
 41
1.0
 50
0.0
 71
     0
 42
0.2
  3
Standard
  4

1001
ACAD
1000
Standard
1071
        0
  0
STYLE
  5
622
330
52A
100
AcDbSymbolTableRecord
100
AcDbTextStyleTableRecord
  2
textstyle35
 70
     0
 40
0.0
 41
1.0
 50
0.0
 71
     0
 42
0.2
  3
Standard
  4

1001
ACAD
1000
Standard
1071
        0
  0
STYLE
  5
623
330
52A
100
AcDbSymbolTableRecord
100
AcDbTextStyleTableRecord
  2
textstyle36
 70
     0
 40
0.0
 41
1.0
 50
0.0
 71
     0
 42
0.2
  3
Standard
  4

1001
ACAD
1000
Standard
1071
        0
  0
STYLE
  5
624
330
52A
100
AcDbSymbolTableRecord
100
AcDbTextStyleTableRecord
  2
textstyle37
 70
     0
 40
0.0
 41
1.0
 50
0.0
 71
     0
 42
0.2
  3
Standard
  4

1001
ACAD
1000
Standard
1071
        0
  0
STYLE
  5
625
330
52A
100
AcDbSymbolTableRecord
100
AcDbTextStyleTableRecord
  2
textstyle38
 70
     0
 40
0.0
 41
1.0
 50
0.0
 71
     0
 42
0.2
  3
Standard
  4

1001
ACAD
1000
Standard
1071
        0
  0
STYLE
  5
626
330
52A
100
AcDbSymbolTableRecord
100
AcDbTextStyleTableRecord
  2
textstyle39
 70
     0
 40
0.0
 41
1.0
 50
0.0
 71
     0
 42
0.2
  3
Standard
  4

1001
ACAD
1000
Standard
1071
        0
  0
STYLE
  5
627
330
52A
100
AcDbSymbolTableRecord
100
AcDbTextStyleTableRecord
  2
textstyle40
 70
     0
 40
0.0
 41
1.0
 50
0.0
 71
     0
 42
0.2
  3
Standard
  4

1001
ACAD
1000
Standard
1071
        0
  0
STYLE
  5
628
330
52A
100
AcDbSymbolTableRecord
100
AcDbTextStyleTableRecord
  2
textstyle41
 70
     0
 40
0.0
 41
1.0
 50
0.0
 71
     0
 42
0.2
  3
Standard
  4

1001
ACAD
1000
Standard
1071
        0
  0
STYLE
  5
629
330
52A
100
AcDbSymbolTableRecord
100
AcDbTextStyleTableRecord
  2
textstyle42
 70
     0
 40
0.0
 41
1.0
 50
0.0
 71
     0
 42
0.2
  3
Standard
  4

1001
ACAD
1000
Standard
1071
        0
  0
STYLE
  5
62A
330
52A
100
AcDbSymbolTableRecord
100
AcDbTextStyleTableRecord
  2
textstyle43
 70
     0
 40
0.0
 41
1.0
 50
0.0
 71
     0
 42
0.2
  3
Standard
  4

1001
ACAD
1000
Standard
1071
        0
  0
STYLE
  5
62B
330
52A
100
AcDbSymbolTableRecord
100
AcDbTextStyleTableRecord
  2
textstyle44
 70
     0
 40
0.0
 41
1.0
 50
0.0
 71
     0
 42
0.2
  3
Standard
  4

1001
ACAD
1000
Standard
1071
        0
  0
STYLE
  5
62C
330
52A
100
AcDbSymbolTableRecord
100
AcDbTextStyleTableRecord
  2
textstyle45
 70
     0
 40
0.0
 41
1.0
 50
0.0
 71
     0
 42
0.2
  3
Standard
  4

1001
ACAD
1000
Standard
1071
        0
  0
STYLE
  5
62D
330
52A
100
AcDbSymbolTableRecord
100
AcDbTextStyleTableRecord
  2
textstyle46
 70
     0
 40
0.0
 41
1.0
 50
0.0
 71
     0
 42
0.2
  3
Standard
  4

1001
ACAD
1000
Standard
1071
        0
  0
STYLE
  5
62E
330
52A
100
AcDbSymbolTableRecord
100
AcDbTextStyleTableRecord
  2
textstyle47
 70
     0
 40
0.0
 41
1.0
 50
0.0
 71
     0
 42
0.2
  3
Standard
  4

1001
ACAD
1000
Standard
1071
        0
  0
STYLE
  5
62F
330
52A
100
AcDbSymbolTableRecord
100
AcDbTextStyleTableRecord
  2
textstyle48
 70
     0
 40
0.0
 41
1.0
 50
0.0
 71
     0
 42
0.2
  3
Standard
  4

1001
ACAD
1000
Standard
1071
        0
  0
STYLE
  5
630
330
52A
100
AcDbSymbolTableRecord
100
AcDbTextStyleTableRecord
  2
textstyle49
 70
     0
 40
0.0
 41
1.0
 50
0.0
 71
     0
 42
0.2
  3
Standard
  4

1001
ACAD
1000
Standard
1071
        0
  0
STYLE
  5
631
330
52A
100
AcDbSymbolTableRecord
100
AcDbTextStyleTableRecord
  2
textstyle50
 70
     0
 40
0.0
 41
1.0
 50
0.0
 71
     0
 42
0.2
  3
Standard
  4

1001
ACAD
1000
Standard
1071
        0
  0
STYLE
  5
632
330
52A
100
AcDbSymbolTableRecord
100
AcDbTextStyleTableRecord
  2
textstyle51
 70
     0
 40
0.0
 41
1.0
 50
0.0
 71
     0
 42
0.2
  3
Standard
  4

1001
ACAD
1000
Standard
1071
        0
  0
STYLE
  5
633
330
52A
100
AcDbSymbolTableRecord
100
AcDbTextStyleTableRecord
  2
textstyle52
 70
     0
 40
0.0
 41
1.0
 50
0.0
 71
     0
 42
0.2
  3
Standard
  4

1001
ACAD
1000
Standard
1071
        0
  0
STYLE
  5
634
330
52A
100
AcDbSymbolTableRecord
100
AcDbTextStyleTableRecord
  2
textstyle53
 70
     0
 40
0.0
 41
1.0
 50
0.0
 71
     0
 42
0.2
  3
Standard
  4

1001
ACAD
1000
Standard
1071
        0
  0
STYLE
  5
635
330
52A
100
AcDbSymbolTableRecord
100
AcDbTextStyleTableRecord
  2
textstyle54
 70
     0
 40
0.0
 41
1.0
 50
0.0
 71
     0
 42
0.2
  3
Standard
  4

1001
ACAD
1000
Standard
1071
        0
  0
STYLE
  5
636
330
52A
100
AcDbSymbolTableRecord
100
AcDbTextStyleTableRecord
  2
textstyle55
 70
     0
 40
0.0
 41
1.0
 50
0.0
 71
     0
 42
0.2
  3
Standard
  4

1001
ACAD
1000
Standard
1071
        0
  0
STYLE
  5
637
330
52A
100
AcDbSymbolTableRecord
100
AcDbTextStyleTableRecord
  2
textstyle56
 70
     0
 40
0.0
 41
1.0
 50
0.0
 71
     0
 42
0.2
  3
Standard
  4

1001
ACAD
1000
Standard
1071
        0
  0
STYLE
  5
638
330
52A
100
AcDbSymbolTableRecord
100
AcDbTextStyleTableRecord
  2
textstyle57
 70
     0
 40
0.0
 41
1.0
 50
0.0
 71
     0
 42
0.2
  3
Standard
  4

1001
ACAD
1000
Standard
1071
        0
  0
STYLE
  5
639
330
52A
100
AcDbSymbolTableRecord
100
AcDbTextStyleTableRecord
  2
textstyle58
 70
     0
 40
0.0
 41
1.0
 50
0.0
 71
     0
 42
0.2
  3
Standard
  4

1001
ACAD
1000
Standard
1071
        0
  0
STYLE
  5
63A
330
52A
100
AcDbSymbolTableRecord
100
AcDbTextStyleTableRecord
  2
textstyle59
 70
     0
 40
0.0
 41
1.0
 50
0.0
 71
     0
 42
0.2
  3
Standard
  4

1001
ACAD
1000
Standard
1071
        0
  0
STYLE
  5
63B
330
52A
100
AcDbSymbolTableRecord
100
AcDbTextStyleTableRecord
  2
textstyle60
 70
     0
 40
0.0
 41
1.0
 50
0.0
 71
     0
 42
0.2
  3
Standard
  4

1001
ACAD
1000
Standard
1071
        0
  0
STYLE
  5
63C
330
52A
100
AcDbSymbolTableRecord
100
AcDbTextStyleTableRecord
  2
textstyle61
 70
     0
 40
0.0
 41
1.0
 50
0.0
 71
     0
 42
0.2
  3
Standard
  4

1001
ACAD
1000
Standard
1071
        0
  0
STYLE
  5
63D
330
52A
100
AcDbSymbolTableRecord
100
AcDbTextStyleTableRecord
  2
textstyle62
 70
     0
 40
0.0
 41
1.0
 50
0.0
 71
     0
 42
0.2
  3
Standard
  4

1001
ACAD
1000
Standard
1071
        0
  0
STYLE
  5
63E
330
52A
100
AcDbSymbolTableRecord
100
AcDbTextStyleTableRecord
  2
textstyle63
 70
     0
 40
0.0
 41
1.0
 50
0.0
 71
     0
 42
0.2
  3
Standard
  4

1001
ACAD
1000
Standard
1071
        0
  0
STYLE
  5
63F
330
52A
100
AcDbSymbolTableRecord
100
AcDbTextStyleTableRecord
  2
textstyle64
 70
     0
 40
0.0
 41
1.0
 50
0.0
 71
     0
 42
0.2
  3
Standard
  4

1001
ACAD
1000
Standard
1071
        0
  0
STYLE
  5
640
330
52A
100
AcDbSymbolTableRecord
100
AcDbTextStyleTableRecord
  2
textstyle65
 70
     0
 40
0.0
 41
1.0
 50
0.0
 71
     0
 42
0.2
  3
Standard
  4

1001
ACAD
1000
Standard
1071
        0
  0
STYLE
  5
641
330
52A
100
AcDbSymbolTableRecord
100
AcDbTextStyleTableRecord
  2
textstyle66
 70
     0
 40
0.0
 41
1.0
 50
0.0
 71
     0
 42
0.2
  3
Standard
  4

1001
ACAD
1000
Standard
1071
        0
  0
STYLE
  5
642
330
52A
100
AcDbSymbolTableRecord
100
AcDbTextStyleTableRecord
  2
textstyle67
 70
     0
 40
0.0
 41
1.0
 50
0.0
 71
     0
 42
0.2
  3
Standard
  4

1001
ACAD
1000
Standard
1071
        0
  0
STYLE
  5
643
330
52A
100
AcDbSymbolTableRecord
100
AcDbTextStyleTableRecord
  2
textstyle68
 70
     0
 40
0.0
 41
1.0
 50
0.0
 71
     0
 42
0.2
  3
Standard
  4

1001
ACAD
1000
Standard
1071
        0
  0
STYLE
  5
644
330
52A
100
AcDbSymbolTableRecord
100
AcDbTextStyleTableRecord
  2
textstyle69
 70
     0
 40
0.0
 41
1.0
 50
0.0
 71
     0
 42
0.2
  3
Standard
  4

1001
ACAD
1000
Standard
1071
        0
  0
STYLE
  5
645
330
52A
100
AcDbSymbolTableRecord
100
AcDbTextStyleTableRecord
  2
textstyle70
 70
     0
 40
0.0
 41
1.0
 50
0.0
 71
     0
 42
0.2
  3
Standard
  4

1001
ACAD
1000
Standard
1071
        0
  0
STYLE
  5
646
330
52A
100
AcDbSymbolTableRecord
100
AcDbTextStyleTableRecord
  2
textstyle71
 70
     0
 40
0.0
 41
1.0
 50
0.0
 71
     0
 42
0.2
  3
Standard
  4

1001
ACAD
1000
Standard
1071
        0
  0
STYLE
  5
647
330
52A
100
AcDbSymbolTableRecord
100
AcDbTextStyleTableRecord
  2
textstyle72
 70
     0
 40
0.0
 41
1.0
 50
0.0
 71
     0
 42
0.2
  3
Standard
  4

1001
ACAD
1000
Standard
1071
        0
  0
STYLE
  5
648
330
52A
100
AcDbSymbolTableRecord
100
AcDbTextStyleTableRecord
  2
textstyle73
 70
     0
 40
0.0
 41
1.0
 50
0.0
 71
     0
 42
0.2
  3
Standard
  4

1001
ACAD
1000
Standard
1071
        0
  0
STYLE
  5
649
330
52A
100
AcDbSymbolTableRecord
100
AcDbTextStyleTableRecord
  2
textstyle74
 70
     0
 40
0.0
 41
1.0
 50
0.0
 71
     0
 42
0.2
  3
Standard
  4

1001
ACAD
1000
Standard
1071
        0
  0
STYLE
  5
64A
330
52A
100
AcDbSymbolTableRecord
100
AcDbTextStyleTableRecord
  2
textstyle75
 70
     0
 40
0.0
 41
1.0
 50
0.0
 71
     0
 42
0.2
  3
Standard
  4

1001
ACAD
1000
Standard
1071
        0
  0
STYLE
  5
64B
330
52A
100
AcDbSymbolTableRecord
100
AcDbTextStyleTableRecord
  2
textstyle76
 70
     0
 40
0.0
 41
1.0
 50
0.0
 71
     0
 42
0.2
  3
Standard
  4

1001
ACAD
1000
Standard
1071
        0
  0
STYLE
  5
64C
330
52A
100
AcDbSymbolTableRecord
100
AcDbTextStyleTableRecord
  2
textstyle77
 70
     0
 40
0.0
 41
1.0
 50
0.0
 71
     0
 42
0.2
  3
Standard
  4

1001
ACAD
1000
Standard
1071
        0
  0
STYLE
  5
64D
330
52A
100
AcDbSymbolTableRecord
100
AcDbTextStyleTableRecord
  2
textstyle78
 70
     0
 40
0.0
 41
1.0
 50
0.0
 71
     0
 42
0.2
  3
Standard
  4

1001
ACAD
1000
Standard
1071
        0
  0
STYLE
  5
64E
330
52A
100
AcDbSymbolTableRecord
100
AcDbTextStyleTableRecord
  2
textstyle79
 70
     0
 40
0.0
 41
1.0
 50
0.0
 71
     0
 42
0.2
  3
Standard
  4

1001
ACAD
1000
Standard
1071
        0
  0
STYLE
  5
64F
330
52A
100
AcDbSymbolTableRecord
100
AcDbTextStyleTableRecord
  2
textstyle80
 70
     0
 40
0.0
 41
1.0
 50
0.0
 71
     0
 42
0.2
  3
Standard
  4

1001
ACAD
1000
Standard
1071
        0
  0
STYLE
  5
650
330
52A
100
AcDbSymbolTableRecord
100
AcDbTextStyleTableRecord
  2
textstyle81
 70
     0
 40
0.0
 41
1.0
 50
0.0
 71
     0
 42
0.2
  3
Standard
  4

1001
ACAD
1000
Standard
1071
        0
  0
STYLE
  5
651
330
52A
100
AcDbSymbolTableRecord
100
AcDbTextStyleTableRecord
  2
textstyle82
 70
     0
 40
0.0
 41
1.0
 50
0.0
 71
     0
 42
0.2
  3
Standard
  4

1001
ACAD
1000
Standard
1071
        0
  0
STYLE
  5
652
330
52A
100
AcDbSymbolTableRecord
100
AcDbTextStyleTableRecord
  2
textstyle83
 70
     0
 40
0.0
 41
1.0
 50
0.0
 71
     0
 42
0.2
  3
Standard
  4

1001
ACAD
1000
Standard
1071
        0
  0
STYLE
  5
653
330
52A
100
AcDbSymbolTableRecord
100
AcDbTextStyleTableRecord
  2
textstyle84
 70
     0
 40
0.0
 41
1.0
 50
0.0
 71
     0
 42
0.2
  3
Standard
  4

1001
ACAD
1000
Standard
1071
        0
  0
STYLE
  5
654
330
52A
100
AcDbSymbolTableRecord
100
AcDbTextStyleTableRecord
  2
textstyle85
 70
     0
 40
0.0
 41
1.0
 50
0.0
 71
     0
 42
0.2
  3
Standard
  4

1001
ACAD
1000
Standard
1071
        0
  0
STYLE
  5
655
330
52A
100
AcDbSymbolTableRecord
100
AcDbTextStyleTableRecord
  2
textstyle86
 70
     0
 40
0.0
 41
1.0
 50
0.0
 71
     0
 42
0.2
  3
Standard
  4

1001
ACAD
1000
Standard
1071
        0
  0
STYLE
  5
656
330
52A
100
AcDbSymbolTableRecord
100
AcDbTextStyleTableRecord
  2
textstyle87
 70
     0
 40
0.0
 41
1.0
 50
0.0
 71
     0
 42
0.2
  3
Standard
  4

1001
ACAD
1000
Standard
1071
        0
  0
STYLE
  5
657
330
52A
100
AcDbSymbolTableRecord
100
AcDbTextStyleTableRecord
  2
textstyle88
 70
     0
 40
0.0
 41
1.0
 50
0.0
 71
     0
 42
0.2
  3
Standard
  4

1001
ACAD
1000
Standard
1071
        0
  0
STYLE
  5
658
330
52A
100
AcDbSymbolTableRecord
100
AcDbTextStyleTableRecord
  2
textstyle89
 70
     0
 40
0.0
 41
1.0
 50
0.0
 71
     0
 42
0.2
  3
Standard
  4

1001
ACAD
1000
Standard
1071
        0
  0
STYLE
  5
659
330
52A
100
AcDbSymbolTableRecord
100
AcDbTextStyleTableRecord
  2
textstyle90
 70
     0
 40
0.0
 41
1.0
 50
0.0
 71
     0
 42
0.2
  3
Standard
  4

1001
ACAD
1000
Standard
1071
        0
  0
STYLE
  5
65A
330
52A
100
AcDbSymbolTableRecord
100
AcDbTextStyleTableRecord
  2
textstyle91
 70
     0
 40
0.0
 41
1.0
 50
0.0
 71
     0
 42
0.2
  3
Standard
  4

1001
ACAD
1000
Standard
1071
        0
  0
STYLE
  5
65B
330
52A
100
AcDbSymbolTableRecord
100
AcDbTextStyleTableRecord
  2
textstyle92
 70
     0
 40
0.0
 41
1.0
 50
0.0
 71
     0
 42
0.2
  3
Standard
  4

1001
ACAD
1000
Standard
1071
        0
  0
STYLE
  5
65C
330
52A
100
AcDbSymbolTableRecord
100
AcDbTextStyleTableRecord
  2
textstyle93
 70
     0
 40
0.0
 41
1.0
 50
0.0
 71
     0
 42
0.2
  3
Standard
  4

1001
ACAD
1000
Standard
1071
        0
  0
STYLE
  5
65D
330
52A
100
AcDbSymbolTableRecord
100
AcDbTextStyleTableRecord
  2
textstyle94
 70
     0
 40
0.0
 41
1.0
 50
0.0
 71
     0
 42
0.2
  3
Standard
  4

1001
ACAD
1000
Standard
1071
        0
  0
STYLE
  5
65E
330
52A
100
AcDbSymbolTableRecord
100
AcDbTextStyleTableRecord
  2
textstyle95
 70
     0
 40
0.0
 41
1.0
 50
0.0
 71
     0
 42
0.2
  3
Standard
  4

1001
ACAD
1000
Standard
1071
        0
  0
STYLE
  5
65F
330
52A
100
AcDbSymbolTableRecord
100
AcDbTextStyleTableRecord
  2
textstyle96
 70
     0
 40
0.0
 41
1.0
 50
0.0
 71
     0
 42
0.2
  3
Standard
  4

1001
ACAD
1000
Standard
1071
        0
  0
STYLE
  5
660
330
52A
100
AcDbSymbolTableRecord
100
AcDbTextStyleTableRecord
  2
textstyle97
 70
     0
 40
0.0
 41
1.0
 50
0.0
 71
     0
 42
0.2
  3
Standard
  4

1001
ACAD
1000
Standard
1071
        0
  0
STYLE
  5
661
330
52A
100
AcDbSymbolTableRecord
100
AcDbTextStyleTableRecord
  2
textstyle98
 70
     0
 40
0.0
 41
1.0
 50
0.0
 71
     0
 42
0.2
  3
Standard
  4

1001
ACAD
1000
Standard
1071
        0
  0
STYLE
  5
662
330
52A
100
AcDbSymbolTableRecord
100
AcDbTextStyleTableRecord
  2
textstyle99
 70
     0
 40
0.0
 41
1.0
 50
0.0
 71
     0
 42
0.2
  3
Standard
  4

1001
ACAD
1000
Standard
1071
        0
  0
STYLE
  5
663
330
52A
100
AcDbSymbolTableRecord
100
AcDbTextStyleTableRecord
  2
textstyle100
 70
     0
 40
0.0
 41
1.0
 50
0.0
 71
     0
 42
0.2
  3
Standard
  4

1001
ACAD
1000
Standard
1071
        0
  0
STYLE
  5
664
330
52A
100
AcDbSymbolTableRecord
100
AcDbTextStyleTableRecord
  2
textstyle101
 70
     0
 40
0.0
 41
1.0
 50
0.0
 71
     0
 42
0.2
  3
Standard
  4

1001
ACAD
1000
Standard
1071
        0
  0
STYLE
  5
665
330
52A
100
AcDbSymbolTableRecord
100
AcDbTextStyleTableRecord
  2
textstyle102
 70
     0
 40
0.0
 41
1.0
 50
0.0
 71
     0
 42
0.2
  3
Standard
  4

1001
ACAD
1000
Standard
1071
        0
  0
STYLE
  5
666
330
52A
100
AcDbSymbolTableRecord
100
AcDbTextStyleTableRecord
  2
textstyle103
 70
     0
 40
0.0
 41
1.0
 50
0.0
 71
     0
 42
0.2
  3
Standard
  4

1001
ACAD
1000
Standard
1071
        0
  0
STYLE
  5
667
330
52A
100
AcDbSymbolTableRecord
100
AcDbTextStyleTableRecord
  2
textstyle104
 70
     0
 40
0.0
 41
1.0
 50
0.0
 71
     0
 42
0.2
  3
Standard
  4

1001
ACAD
1000
Standard
1071
        0
  0
STYLE
  5
668
330
52A
100
AcDbSymbolTableRecord
100
AcDbTextStyleTableRecord
  2
textstyle105
 70
     0
 40
0.0
 41
1.0
 50
0.0
 71
     0
 42
0.2
  3
Standard
  4

1001
ACAD
1000
Standard
1071
        0
  0
STYLE
  5
669
330
52A
100
AcDbSymbolTableRecord
100
AcDbTextStyleTableRecord
  2
textstyle106
 70
     0
 40
0.0
 41
1.0
 50
0.0
 71
     0
 42
0.2
  3
Standard
  4

1001
ACAD
1000
Standard
1071
        0
  0
STYLE
  5
66A
330
52A
100
AcDbSymbolTableRecord
100
AcDbTextStyleTableRecord
  2
textstyle107
 70
     0
 40
0.0
 41
1.0
 50
0.0
 71
     0
 42
0.2
  3
Standard
  4

1001
ACAD
1000
Standard
1071
        0
  0
STYLE
  5
66B
330
52A
100
AcDbSymbolTableRecord
100
AcDbTextStyleTableRecord
  2
textstyle108
 70
     0
 40
0.0
 41
1.0
 50
0.0
 71
     0
 42
0.2
  3
Standard
  4

1001
ACAD
1000
Standard
1071
        0
  0
STYLE
  5
66C
330
52A
100
AcDbSymbolTableRecord
100
AcDbTextStyleTableRecord
  2
textstyle109
 70
     0
 40
0.0
 41
1.0
 50
0.0
 71
     0
 42
0.2
  3
Standard
  4

1001
ACAD
1000
Standard
1071
        0
  0
STYLE
  5
66D
330
52A
100
AcDbSymbolTableRecord
100
AcDbTextStyleTableRecord
  2
textstyle110
 70
     0
 40
0.0
 41
1.0
 50
0.0
 71
     0
 42
0.2
  3
Standard
  4

1001
ACAD
1000
Standard
1071
        0
  0
STYLE
  5
66E
330
52A
100
AcDbSymbolTableRecord
100
AcDbTextStyleTableRecord
  2
textstyle111
 70
     0
 40
0.0
 41
1.0
 50
0.0
 71
     0
 42
0.2
  3
Standard
  4

1001
ACAD
1000
Standard
1071
        0
  0
STYLE
  5
66F
330
52A
100
AcDbSymbolTableRecord
100
AcDbTextStyleTableRecord
  2
textstyle112
 70
     0
 40
0.0
 41
1.0
 50
0.0
 71
     0
 42
0.2
  3
Standard
  4

1001
ACAD
1000
Standard
1071
        0
  0
STYLE
  5
670
330
52A
100
AcDbSymbolTableRecord
100
AcDbTextStyleTableRecord
  2
textstyle113
 70
     0
 40
0.0
 41
1.0
 50
0.0
 71
     0
 42
0.2
  3
Standard
  4

1001
ACAD
1000
Standard
1071
        0
  0
ENDTAB
  0
TABLE
  2
VIEW
  5
52C
330
0
100
AcDbSymbolTable
 70
     0
  0
ENDTAB
  0
TABLE
  2
UCS
  5
52D
330
0
100
AcDbSymbolTable
 70
     0
  0
ENDTAB
  0
TABLE
  2
APPID
  5
52F
330
0
100
AcDbSymbolTable
 70
     2
  0
APPID
  5
538
330
52F
100
AcDbSymbolTableRecord
100
AcDbRegAppTableRecord
  2
ACAD
 70
     0
  0
APPID
  5
593
330
52F
100
AcDbSymbolTableRecord
100
AcDbRegAppTableRecord
  2
QCAD
 70
     0
  0
ENDTAB
  0
TABLE
  2
DIMSTYLE
  5
530
330
0
100
AcDbSymbolTable
 70
     2
100
AcDbDimStyleTable
  0
DIMSTYLE
105
54C
330
530
100
AcDbSymbolTableRecord
100
AcDbDimStyleTableRecord
  2
Standard
 70
     0
178
     0
340
537
  0
DIMSTYLE
105
5CD
330
530
100
AcDbSymbolTableRecord
100
AcDbDimStyleTableRecord
  2
QCADDimStyle
 70
     0
 41
0.125
 42
0.03125
 44
0.0625
 73
     0
 77
     1
140
0.125
147
0.03125
178
     0
340
5CC
  0
ENDTAB
  0
TABLE
  2
BLOCK_RECORD
  5
528
330
0
100
AcDbSymbolTable
 70
     0
  0
BLOCK_RECORD
  5
544
330
528
100
AcDbSymbolTableRecord
100
AcDbBlockTableRecord
  2
*Model_Space
340
547
 70
     0
280
     1
281
     0
  0
BLOCK_RECORD
  5
540
330
528
100
AcDbSymbolTableRecord
100
AcDbBlockTableRecord
  2
*Paper_Space
340
543
 70
     0
280
     1
281
     0
1001
QCAD
1000
PageSettings/Scale:1" = 1"
  0
ENDTAB
  0
ENDSEC
  0
SECTION
  2
BLOCKS
  0
BLOCK
  5
545
330
544
100
AcDbEntity
  8
0
100
AcDbBlockBegin
  2
*Model_Space
 70
     0
 10
0.0
 20
0.0
 30
0.0
  3
*Model_Space
  1

  0
ENDBLK
  5
546
330
544
100
AcDbEntity
  8
0
100
AcDbBlockEnd
  0
BLOCK
  5
541
330
540
100
AcDbEntity
 67
     1
  8
0
100
AcDbBlockBegin
  2
*Paper_Space
 70
     0
 10
0.0
 20
0.0
 30
0.0
  3
*Paper_Space
  1

  0
ENDBLK
  5
542
330
540
100
AcDbEntity
 67
     1
  8
0
100
AcDbBlockEnd
  0
ENDSEC
  0
SECTION
  2
ENTITIES
  0
LINE
  5
38
330
544
100
AcDbEntity
  8
0
370
     0
100
AcDbLine
 10
140.0
 20
110.0
 30
0.0
 11
140.0
 21
210.0
 31
0.0
  0
LINE
  5
39
330
544
100
AcDbEntity
  8
0
370
     0
100
AcDbLine
 10
140.0
 20
210.0
 30
0.0
 11
240.0
 21
210.0
 31
0.0
  0
LINE
  5
3A
330
544
100
AcDbEntity
  8
0
370
     0
100
AcDbLine
 10
240.0
 20
210.0
 30
0.0
 11
240.0
 21
10.0
 31
0.0
  0
LINE
  5
3B
330
544
100
AcDbEntity
  8
0
370
     0
100
AcDbLine
 10
240.0
 20
10.0
 30
0.0
 11
140.0
 21
10.0
 31
0.0
  0
LINE
  5
3C
330
544
100
AcDbEntity
  8
0
370
     0
100
AcDbLine
 10
140.0
 20
10.0
 30
0.0
 11
140.0
 21
110.0
 31
0.0
  0
LINE
  5
3D
330
544
100
AcDbEntity
  8
0
370
     0
100
AcDbLine
 10
140.0
 20
200.0
 30
0.0
 11
80.0
 21
200.0
 31
0.0
  0
LINE
  5
47
330
544
100
AcDbEntity
  8
0
370
     0
100
AcDbLine
 10
140.0
 20
180.0
 30
0.0
 11
80.0
 21
180.0
 31
0.0
  0
LINE
  5
3E
330
544
100
AcDbEntity
  8
0
370
     0
100
AcDbLine
 10
80.0
 20
200.0
 30
0.0
 11
78.0
 21
198.0
 31
0.0
  0
LINE
  5
48
330
544
100
AcDbEntity
  8
0
370
     0
100
AcDbLine
 10
80.0
 20
180.0
 30
0.0
 11
78.0
 21
178.0
 31
0.0
  0
LINE
  5
52
330
544
100
AcDbEntity
  8
0
370
     0
100
AcDbLine
 10
70.00000000000011
 20
180.0
 30
0.0
 11
72.00000000000013
 21
178.0
 31
0.0
  0
LINE
  5
67
330
544
100
AcDbEntity
  8
0
370
     0
100
AcDbLine
 10
70.00000000000011
 20
144.0
 30
0.0
 11
72.00000000000013
 21
142.0
 31
0.0
  0
LINE
  5
3F
330
544
100
AcDbEntity
  8
0
370
     0
100
AcDbLine
 10
78.0
 20
198.0
 30
0.0
 11
80.0
 21
196.0
 31
0.0
  0
LINE
  5
49
330
544
100
AcDbEntity
  8
0
370
     0
100
AcDbLine
 10
78.0
 20
178.0
 30
0.0
 11
80.0
 21
176.0
 31
0.0
  0
LINE
  5
54
330
544
100
AcDbEntity
  8
0
370
     0
100
AcDbLine
 10
72.00000000000013
 20
178.0
 30
0.0
 11
70.00000000000014
 21
176.0
 31
0.0
  0
LINE
  5
68
330
544
100
AcDbEntity
  8
0
370
     0
100
AcDbLine
 10
72.00000000000013
 20
142.0
 30
0.0
 11
70.00000000000014
 21
140.0
 31
0.0
  0
LINE
  5
40
330
544
100
AcDbEntity
  8
0
370
     0
100
AcDbLine
 10
80.0
 20
196.0
 30
0.0
 11
78.0
 21
194.0
 31
0.0
  0
LINE
  5
45
330
544
100
AcDbEntity
  8
0
370
     0
100
AcDbLine
 10
80.0
 20
192.0
 30
0.0
 11
78.0
 21
190.0
 31
0.0
  0
LINE
  5
4A
330
544
100
AcDbEntity
  8
0
370
     0
100
AcDbLine
 10
80.0
 20
176.0
 30
0.0
 11
78.0
 21
174.0
 31
0.0
  0
LINE
  5
4B
330
544
100
AcDbEntity
  8
0
370
     0
100
AcDbLine
 10
80.0
 20
172.0
 30
0.0
 11
78.0
 21
170.0
 31
0.0
  0
LINE
  5
55
330
544
100
AcDbEntity
  8
0
370
     0
100
AcDbLine
 10
70.00000000000004
 20
196.0
 30
0.0
 11
72.00000000000004
 21
194.0
 31
0.0
  0
LINE
  5
56
330
544
100
AcDbEntity
  8
0
370
     0
100
AcDbLine
 10
70.00000000000006
 20
192.0
 30
0.0
 11
72.00000000000006
 21
190.0
 31
0.0
  0
LINE
  5
57
330
544
100
AcDbEntity
  8
0
370
     0
100
AcDbLine
 10
70.00000000000014
 20
176.0
 30
0.0
 11
72.00000000000017
 21
174.0
 31
0.0
  0
LINE
  5
58
330
544
100
AcDbEntity
  8
0
370
     0
100
AcDbLine
 10
70.00000000000016
 20
172.0
 30
0.0
 11
72.00000000000017
 21
170.0
 31
0.0
  0
LINE
  5
69
330
544
100
AcDbEntity
  8
0
370
     0
100
AcDbLine
 10
70.00000000000004
 20
160.0
 30
0.0
 11
72.00000000000004
 21
158.0
 31
0.0
  0
LINE
  5
6A
330
544
100
AcDbEntity
  8
0
370
     0
100
AcDbLine
 10
70.00000000000006
 20
156.0
 30
0.0
 11
72.00000000000006
 21
154.0
 31
0.0
  0
LINE
  5
6B
330
544
100
AcDbEntity
  8
0
370
     0
100
AcDbLine
 10
70.00000000000014
 20
140.0
 30
0.0
 11
72.00000000000017
 21
138.0
 31
0.0
  0
LINE
  5
6C
330
544
100
AcDbEntity
  8
0
370
     0
100
AcDbLine
 10
70.00000000000016
 20
136.0
 30
0.0
 11
72.00000000000017
 21
134.0
 31
0.0
  0
LINE
  5
41
330
544
100
AcDbEntity
  8
0
370
     0
100
AcDbLine
 10
78.0
 20
194.0
 30
0.0
 11
80.0
 21
192.0
 31
0.0
  0
LINE
  5
46
330
544
100
AcDbEntity
  8
0
370
     0
100
AcDbLine
 10
78.0
 20
190.0
 30
0.0
 11
80.0
 21
188.0
 31
0.0
  0
LINE
  5
4C
330
544
100
AcDbEntity
  8
0
370
     0
100
AcDbLine
 10
78.0
 20
174.0
 30
0.0
 11
80.0
 21
172.0
 31
0.0
  0
LINE
  5
4D
330
544
100
AcDbEntity
  8
0
370
     0
100
AcDbLine
 10
78.0
 20
170.0
 30
0.0
 11
80.0
 21
168.0
 31
0.0
  0
LINE
  5
59
330
544
100
AcDbEntity
  8
0
370
     0
100
AcDbLine
 10
72.00000000000004
 20
194.0
 30
0.0
 11
70.00000000000006
 21
192.0
 31
0.0
  0
LINE
  5
5A
330
544
100
AcDbEntity
  8
0
370
     0
100
AcDbLine
 10
72.00000000000006
 20
190.0
 30
0.0
 11
70.00000000000009
 21
188.0
 31
0.0
  0
LINE
  5
5B
330
544
100
AcDbEntity
  8
0
370
     0
100
AcDbLine
 10
72.00000000000017
 20
174.0
 30
0.0
 11
70.00000000000016
 21
172.0
 31
0.0
  0
LINE
  5
5C
330
544
100
AcDbEntity
  8
0
370
     0
100
AcDbLine
 10
72.00000000000017
 20
170.0
 30
0.0
 11
70.00000000000018
 21
168.0
 31
0.0
  0
LINE
  5
6D
330
544
100
AcDbEntity
  8
0
370
     0
100
AcDbLine
 10
72.00000000000004
 20
158.0
 30
0.0
 11
70.00000000000006
 21
156.0
 31
0.0
  0
LINE
  5
6E
330
544
100
AcDbEntity
  8
0
370
     0
100
AcDbLine
 10
72.00000000000006
 20
154.0
 30
0.0
 11
70.00000000000009
 21
152.0
 31
0.0
  0
LINE
  5
6F
330
544
100
AcDbEntity
  8
0
370
     0
100
AcDbLine
 10
72.00000000000017
 20
138.0
 30
0.0
 11
70.00000000000016
 21
136.0
 31
0.0
  0
LINE
  5
70
330
544
100
AcDbEntity
  8
0
370
     0
100
AcDbLine
 10
72.00000000000017
 20
134.0
 30
0.0
 11
70.00000000000018
 21
132.0
 31
0.0
  0
LINE
  5
42
330
544
100
AcDbEntity
  8
0
370
     0
100
AcDbLine
 10
80.0
 20
188.0
 30
0.0
 11
78.0
 21
186.0
 31
0.0
  0
LINE
  5
4E
330
544
100
AcDbEntity
  8
0
370
     0
100
AcDbLine
 10
80.0
 20
168.0
 30
0.0
 11
78.0
 21
166.0
 31
0.0
  0
LINE
  5
5D
330
544
100
AcDbEntity
  8
0
370
     0
100
AcDbLine
 10
70.00000000000009
 20
188.0
 30
0.0
 11
72.0000000000001
 21
186.0
 31
0.0
  0
LINE
  5
61
330
544
100
AcDbEntity
  8
0
370
     0
100
AcDbLine
 10
70.0000000000001
 20
184.0
 30
0.0
 11
72.00000000000011
 21
182.0
 31
0.0
  0
LINE
  5
71
330
544
100
AcDbEntity
  8
0
370
     0
100
AcDbLine
 10
70.00000000000009
 20
152.0
 30
0.0
 11
72.0000000000001
 21
150.0
 31
0.0
  0
LINE
  5
72
330
544
100
AcDbEntity
  8
0
370
     0
100
AcDbLine
 10
70.0000000000001
 20
148.0
 30
0.0
 11
72.00000000000011
 21
146.0
 31
0.0
  0
LINE
  5
43
330
544
100
AcDbEntity
  8
0
370
     0
100
AcDbLine
 10
78.0
 20
186.0
 30
0.0
 11
80.0
 21
184.0
 31
0.0
  0
LINE
  5
4F
330
544
100
AcDbEntity
  8
0
370
     0
100
AcDbLine
 10
78.0
 20
166.0
 30
0.0
 11
80.0
 21
164.0
 31
0.0
  0
LINE
  5
5F
330
544
100
AcDbEntity
  8
0
370
     0
100
AcDbLine
 10
72.0000000000001
 20
186.0
 30
0.0
 11
70.00000000000009
 21
184.0
 31
0.0
  0
LINE
  5
62
330
544
100
AcDbEntity
  8
0
370
     0
100
AcDbLine
 10
72.00000000000011
 20
182.0
 30
0.0
 11
70.00000000000011
 21
180.0
 31
0.0
  0
LINE
  5
73
330
544
100
AcDbEntity
  8
0
370
     0
100
AcDbLine
 10
72.0000000000001
 20
150.0
 30
0.0
 11
70.00000000000009
 21
148.0
 31
0.0
  0
LINE
  5
74
330
544
100
AcDbEntity
  8
0
370
     0
100
AcDbLine
 10
72.00000000000011
 20
146.0
 30
0.0
 11
70.00000000000011
 21
144.0
 31
0.0
  0
LINE
  5
44
330
544
100
AcDbEntity
  8
0
370
     0
100
AcDbLine
 10
80.0
 20
184.0
 30
0.0
 11
140.0
 21
184.0
 31
0.0
  0
LINE
  5
50
330
544
100
AcDbEntity
  8
0
370
     0
100
AcDbLine
 10
80.0
 20
164.0
 30
0.0
 11
140.0
 21
164.0
 31
0.0
  0
LINE
  5
63
330
544
100
AcDbEntity
  8
0
100
AcDbLine
 10
70.00000000000004
 20
196.0
 30
0.0
 11
65.0
 21
196.0
 31
0.0
  0
LINE
  5
75
330
544
100
AcDbEntity
  8
0
100
AcDbLine
 10
70.00000000000004
 20
160.0
 30
0.0
 11
65.0
 21
160.0
 31
0.0
  0
LINE
  5
64
330
544
100
AcDbEntity
  8
0
100
AcDbLine
 10
70.00000000000009
 20
188.0
 30
0.0
 11
30.0
 21
188.0
 31
0.0
  0
LINE
  5
76
330
544
100
AcDbEntity
  8
0
100
AcDbLine
 10
70.00000000000009
 20
152.0
 30
0.0
 11
65.0
 21
152.0
 31
0.0
  0
LINE
  5
65
330
544
100
AcDbEntity
  8
0
100
AcDbLine
 10
70.00000000000018
 20
168.0
 30
0.0
 11
45.0
 21
168.0
 31
0.0
  0
LINE
  5
77
330
544
100
AcDbEntity
  8
0
100
AcDbLine
 10
70.00000000000018
 20
132.0
 30
0.0
 11
30.0
 21
132.0
 31
0.0
  0
LINE
  5
66
330
544
100
AcDbEntity
  8
0
100
AcDbLine
 10
70.00000000000013
 20
176.0
 30
0.0
 11
65.0
 21
176.0
 31
0.0
  0
LINE
  5
78
330
544
100
AcDbEntity
  8
0
100
AcDbLine
 10
70.00000000000013
 20
140.0
 30
0.0
 11
65.0
 21
140.0
 31
0.0
  0
LINE
  5
79
330
544
100
AcDbEntity
  8
0
100
AcDbLine
 10
45.0
 20
168.0
 30
0.0
 11
45.00000000000009
 21
132.0
 31
0.0
  0
LINE
  5
7A
330
544
100
AcDbEntity
  8
0
100
AcDbLine
 10
65.0
 20
152.0
 30
0.0
 11
50.0
 21
152.0
 31
0.0
  0
LINE
  5
7B
330
544
100
AcDbEntity
  8
0
100
AcDbLine
 10
50.0
 20
152.0
 30
0.0
 11
50.0
 21
188.0
 31
0.0
  0
CIRCLE
  5
CD
330
544
100
AcDbEntity
  8
0
100
AcDbCircle
 10
140.0
 20
155.0
 30
0.0
 40
1.0
  0
CIRCLE
  5
CE
330
544
100
AcDbEntity
  8
0
100
AcDbCircle
 10
140.0
 20
150.0
 30
0.0
 40
1.0
  0
CIRCLE
  5
CF
330
544
100
AcDbEntity
  8
0
100
AcDbCircle
 10
140.0
 20
145.0
 30
0.0
 40
1.0
  0
CIRCLE
  5
D0
330
544
100
AcDbEntity
  8
0
100
AcDbCircle
 10
140.0
 20
140.0
 30
0.0
 40
1.0
  0
CIRCLE
  5
F5
330
544
100
AcDbEntity
  8
0
100
AcDbCircle
 10
140.0
 20
110.0
 30
0.0
 40
1.0
  0
CIRCLE
  5
F7
330
544
100
AcDbEntity
  8
0
100
AcDbCircle
 10
140.0
 20
100.0
 30
0.0
 40
1.0
  0
CIRCLE
  5
11B
330
544
100
AcDbEntity
  8
0
100
AcDbCircle
 10
140.0
 20
90.0
 30
0.0
 40
1.0
  0
CIRCLE
  5
121
330
544
100
AcDbEntity
  8
0
100
AcDbCircle
 10
140.0
 20
85.0
 30
0.0
 40
1.0
  0
CIRCLE
  5
122
330
544
100
AcDbEntity
  8
0
100
AcDbCircle
 10
140.0
 20
80.0
 30
0.0
 40
1.0
  0
CIRCLE
  5
166
330
544
100
AcDbEntity
  8
0
100
AcDbCircle
 10
140.0
 20
60.0
 30
0.0
 40
1.0
  0
CIRCLE
  5
16C
330
544
100
AcDbEntity
  8
0
100
AcDbCircle
 10
140.0
 20
55.0
 30
0.0
 40
1.0
  0
CIRCLE
  5
182
330
544
100
AcDbEntity
  8
0
100
AcDbCircle
 10
140.0
 20
35.0
 30
0.0
 40
1.0
  0
CIRCLE
  5
183
330
544
100
AcDbEntity
  8
0
100
AcDbCircle
 10
140.0
 20
30.0
 30
0.0
 40
1.0
  0
CIRCLE
  5
1C5
330
544
100
AcDbEntity
  8
0
100
AcDbCircle
 10
240.0
 20
110.0
 30
0.0
 40
1.0
  0
CIRCLE
  5
1C6
330
544
100
AcDbEntity
  8
0
100
AcDbCircle
 10
240.0
 20
100.0
 30
0.0
 40
1.0
  0
CIRCLE
  5
1DB
330
544
100
AcDbEntity
  8
0
100
AcDbCircle
 10
240.0
 20
40.0
 30
0.0
 40
1.0
  0
CIRCLE
  5
1DC
330
544
100
AcDbEntity
  8
0
100
AcDbCircle
 10
240.0
 20
30.0
 30
0.0
 40
1.0
  0
CIRCLE
  5
218
330
544
100
AcDbEntity
  8
0
100
AcDbCircle
 10
240.0
 20
155.0
 30
0.0
 40
1.0
  0
CIRCLE
  5
21C
330
544
100
AcDbEntity
  8
0
100
AcDbCircle
 10
240.0
 20
145.0
 30
0.0
 40
1.0
  0
CIRCLE
  5
224
330
544
100
AcDbEntity
  8
0
100
AcDbCircle
 10
300.0
 20
155.0
 30
0.0
 40
1.0
  0
CIRCLE
  5
225
330
544
100
AcDbEntity
  8
0
100
AcDbCircle
 10
300.0
 20
145.0
 30
0.0
 40
1.0
  0
MTEXT
  5
86
330
544
100
AcDbEntity
  8
0
100
AcDbMText
 10
64.99999999999999
 20
199.0
 30
0.0
 40
2.0
 41
0.0
 46
0.0
 71
     5
 72
     1
  1
240
  7
textstyle11
 73
     1
 44
1.0
  0
MTEXT
  5
A5
330
544
100
AcDbEntity
  8
0
100
AcDbMText
 10
60.00000000000003
 20
199.0
 30
0.0
 40
2.0
 41
0.0
 46
0.0
 71
     6
 72
     1
  1
V21
  7
textstyle12
 73
     1
 44
1.0
  0
MTEXT
  5
AD
330
544
100
AcDbEntity
  8
0
100
AcDbMText
 10
60.00000000000003
 20
163.0
 30
0.0
 40
2.0
 41
0.0
 46
0.0
 71
     6
 72
     1
  1
V11
  7
textstyle13
 73
     1
 44
1.0
  0
MTEXT
  5
87
330
544
100
AcDbEntity
  8
0
100
AcDbMText
 10
64.99999999999997
 20
191.0
 30
0.0
 40
2.0
 41
0.0
 46
0.0
 71
     5
 72
     1
  1
200
  7
textstyle14
 73
     1
 44
1.0
  0
MTEXT
  5
A6
330
544
100
AcDbEntity
  8
0
100
AcDbMText
 10
60.0
 20
191.0
 30
0.0
 40
2.0
 41
0.0
 46
0.0
 71
     6
 72
     1
  1
V22
  7
textstyle15
 73
     1
 44
1.0
  0
MTEXT
  5
AE
330
544
100
AcDbEntity
  8
0
100
AcDbMText
 10
60.0
 20
155.0
 30
0.0
 40
2.0
 41
0.0
 46
0.0
 71
     6
 72
     1
  1
V12
  7
textstyle16
 73
     1
 44
1.0
  0
MTEXT
  5
88
330
544
100
AcDbEntity
  8
0
100
AcDbMText
 10
65.0
 20
179.0
 30
0.0
 40
2.0
 41
0.0
 46
0.0
 71
     5
 72
     1
  1
20
  7
textstyle17
 73
     1
 44
1.0
  0
MTEXT
  5
92
330
544
100
AcDbEntity
  8
0
100
AcDbMText
 10
86.00000000000001
 20
203.0
 30
0.0
 40
2.0
 41
0.0
 46
0.0
 71
     5
 72
     1
  1
100
  7
textstyle18
 73
     1
 44
1.0
  0
MTEXT
  5
93
330
544
100
AcDbEntity
  8
0
100
AcDbMText
 10
86.00000000000001
 20
187.0
 30
0.0
 40
2.0
 41
0.0
 46
0.0
 71
     5
 72
     1
  1
0
  7
textstyle19
 73
     1
 44
1.0
  0
MTEXT
  5
94
330
544
100
AcDbEntity
  8
0
100
AcDbMText
 10
86.00000000000003
 20
177.0
 30
0.0
 40
2.0
 41
0.0
 46
0.0
 71
     5
 72
     1
  1
85
  7
textstyle20
 73
     1
 44
1.0
  0
MTEXT
  5
96
330
544
100
AcDbEntity
  8
0
100
AcDbMText
 10
86.00000000000001
 20
167.0
 30
0.0
 40
2.0
 41
0.0
 46
0.0
 71
     5
 72
     1
  1
0
  7
textstyle21
 73
     1
 44
1.0
  0
MTEXT
  5
97
330
544
100
AcDbEntity
  8
0
100
AcDbMText
 10
94.99999999999994
 20
203.0
 30
0.0
 40
2.0
 41
0.0
 46
0.0
 71
     4
 72
     1
  1
V2
  7
textstyle22
 73
     1
 44
1.0
  0
MTEXT
  5
98
330
544
100
AcDbEntity
  8
0
100
AcDbMText
 10
95.0
 20
187.0
 30
0.0
 40
2.0
 41
0.0
 46
0.0
 71
     4
 72
     1
  1
U2
  7
textstyle23
 73
     1
 44
1.0
  0
MTEXT
  5
99
330
544
100
AcDbEntity
  8
0
100
AcDbMText
 10
95.00000000000003
 20
177.0
 30
0.0
 40
2.0
 41
0.0
 46
0.0
 71
     4
 72
     1
  1
V1
  7
textstyle24
 73
     1
 44
1.0
  0
MTEXT
  5
9A
330
544
100
AcDbEntity
  8
0
100
AcDbMText
 10
95.0
 20
167.0
 30
0.0
 40
2.0
 41
0.0
 46
0.0
 71
     4
 72
     1
  1
U1
  7
textstyle25
 73
     1
 44
1.0
  0
MTEXT
  5
A7
330
544
100
AcDbEntity
  8
0
100
AcDbMText
 10
59.99999999999997
 20
179.0
 30
0.0
 40
2.0
 41
0.0
 46
0.0
 71
     6
 72
     1
  1
U22
  7
textstyle26
 73
     1
 44
1.0
  0
MTEXT
  5
AF
330
544
100
AcDbEntity
  8
0
100
AcDbMText
 10
60.00000000000001
 20
143.0
 30
0.0
 40
2.0
 41
0.0
 46
0.0
 71
     6
 72
     1
  1
U12
  7
textstyle27
 73
     1
 44
1.0
  0
MTEXT
  5
B1
330
544
100
AcDbEntity
  8
0
100
AcDbMText
 10
142.0
 20
203.0
 30
0.0
 40
2.0
 41
0.0
 46
0.0
 71
     4
 72
     1
  1
V2
  7
textstyle28
 73
     1
 44
1.0
  0
MTEXT
  5
B2
330
544
100
AcDbEntity
  8
0
100
AcDbMText
 10
142.0
 20
186.9999999999999
 30
0.0
 40
2.0
 41
0.0
 46
0.0
 71
     4
 72
     1
  1
U2
  7
textstyle29
 73
     1
 44
1.0
  0
MTEXT
  5
B3
330
544
100
AcDbEntity
  8
0
100
AcDbMText
 10
142.0
 20
177.0
 30
0.0
 40
2.0
 41
0.0
 46
0.0
 71
     4
 72
     1
  1
V1
  7
textstyle30
 73
     1
 44
1.0
  0
MTEXT
  5
B4
330
544
100
AcDbEntity
  8
0
100
AcDbMText
 10
142.0
 20
167.0
 30
0.0
 40
2.0
 41
0.0
 46
0.0
 71
     4
 72
     1
  1
U1
  7
textstyle31
 73
     1
 44
1.0
  0
MTEXT
  5
214
330
544
100
AcDbEntity
  8
0
100
AcDbMText
 10
236.9999999999999
 20
202.0
 30
0.0
 40
2.0
 41
0.0
 46
0.0
 71
     4
 72
     1
  1
A
  7
textstyle32
 73
     1
 44
1.0
  0
MTEXT
  5
216
330
544
100
AcDbEntity
  8
0
100
AcDbMText
 10
236.9999999999999
 20
166.0000000000001
 30
0.0
 40
2.0
 41
0.0
 46
0.0
 71
     4
 72
     1
  1
B
  7
textstyle33
 73
     1
 44
1.0
  0
MTEXT
  5
89
330
544
100
AcDbEntity
  8
0
100
AcDbMText
 10
65.00000000000003
 20
171.0
 30
0.0
 40
2.0
 41
0.0
 46
0.0
 71
     5
 72
     1
  1
0
  7
textstyle34
 73
     1
 44
1.0
  0
MTEXT
  5
A8
330
544
100
AcDbEntity
  8
0
100
AcDbMText
 10
60.00000000000003
 20
171.0
 30
0.0
 40
2.0
 41
0.0
 46
0.0
 71
     6
 72
     1
  1
U21
  7
textstyle35
 73
     1
 44
1.0
  0
MTEXT
  5
B0
330
544
100
AcDbEntity
  8
0
100
AcDbMText
 10
59.99999999999996
 20
135.0
 30
0.0
 40
2.0
 41
0.0
 46
0.0
 71
     6
 72
     1
  1
U11
  7
textstyle36
 73
     1
 44
1.0
  0
MTEXT
  5
8A
330
544
100
AcDbEntity
  8
0
100
AcDbMText
 10
65.0
 20
163.0
 30
0.0
 40
2.0
 41
0.0
 46
0.0
 71
     5
 72
     1
  1
240
  7
textstyle37
 73
     1
 44
1.0
  0
MTEXT
  5
8B
330
544
100
AcDbEntity
  8
0
100
AcDbMText
 10
64.99999999999999
 20
155.0
 30
0.0
 40
2.0
 41
0.0
 46
0.0
 71
     5
 72
     1
  1
200
  7
textstyle38
 73
     1
 44
1.0
  0
MTEXT
  5
8C
330
544
100
AcDbEntity
  8
0
100
AcDbMText
 10
64.99999999999999
 20
143.0
 30
0.0
 40
2.0
 41
0.0
 46
0.0
 71
     5
 72
     1
  1
20
  7
textstyle39
 73
     1
 44
1.0
  0
MTEXT
  5
8D
330
544
100
AcDbEntity
  8
0
100
AcDbMText
 10
64.99999999999997
 20
135.0
 30
0.0
 40
2.0
 41
0.0
 46
0.0
 71
     5
 72
     1
  1
0
  7
textstyle40
 73
     1
 44
1.0
  0
LINE
  5
9B
330
544
100
AcDbEntity
  8
0
100
AcDbLine
 10
75.0
 20
205.0
 30
0.0
 11
75.0
 21
132.0
 31
0.0
  0
LINE
  5
9C
330
544
100
AcDbEntity
  8
0
100
AcDbLine
 10
75.0
 20
132.0
 30
0.0
 11
90.0
 21
132.0
 31
0.0
  0
LINE
  5
9D
330
544
100
AcDbEntity
  8
0
100
AcDbLine
 10
90.0
 20
132.0
 30
0.0
 11
90.0
 21
120.0
 31
0.0
  0
LINE
  5
9E
330
544
100
AcDbEntity
  8
0
100
AcDbLine
 10
90.0
 20
120.0
 30
0.0
 11
87.0
 21
120.0
 31
0.0
  0
LINE
  5
9F
330
544
100
AcDbEntity
  8
0
100
AcDbLine
 10
87.0
 20
120.0
 30
0.0
 11
93.0
 21
120.0
 31
0.0
  0
LINE
  5
A0
330
544
100
AcDbEntity
  8
0
100
AcDbLine
 10
93.0
 20
120.0
 30
0.0
 11
92.0
 21
119.0
 31
0.0
  0
LINE
  5
A1
330
544
100
AcDbEntity
  8
0
100
AcDbLine
 10
91.0
 20
120.0
 30
0.0
 11
90.0
 21
119.0
 31
0.0
  0
LINE
  5
A2
330
544
100
AcDbEntity
  8
0
100
AcDbLine
 10
89.0
 20
120.0
 30
0.0
 11
88.0
 21
119.0
 31
0.0
  0
LINE
  5
A3
330
544
100
AcDbEntity
  8
0
100
AcDbLine
 10
87.0
 20
120.0
 30
0.0
 11
86.0
 21
119.0
 31
0.0
  0
MTEXT
  5
A4
330
544
100
AcDbEntity
  8
0
100
AcDbMText
 10
74.99999999999996
 20
208.0
 30
0.0
 40
2.0
 41
0.0
 46
0.0
 71
     5
 72
     1
  1
3T
  7
textstyle41
 73
     1
 44
1.0
  0
LINE
  5
B5
330
544
100
AcDbEntity
  8
0
100
AcDbLine
 10
140.0
 20
155.0
 30
0.0
 11
100.0
 21
155.0
 31
0.0
  0
LINE
  5
B6
330
544
100
AcDbEntity
  8
0
100
AcDbLine
 10
100.0
 20
150.0
 30
0.0
 11
140.0
 21
150.0
 31
0.0
  0
LINE
  5
B7
330
544
100
AcDbEntity
  8
0
100
AcDbLine
 10
140.0
 20
145.0
 30
0.0
 11
100.0
 21
145.0
 31
0.0
  0
LINE
  5
123
330
544
100
AcDbEntity
  8
0
100
AcDbLine
 10
153.0
 20
85.0
 30
0.0
 11
100.0
 21
85.0
 31
0.0
  0
LINE
  5
184
330
544
100
AcDbEntity
  8
0
100
AcDbLine
 10
140.0
 20
35.0
 30
0.0
 11
100.0
 21
35.0
 31
0.0
  0
LINE
  5
B8
330
544
100
AcDbEntity
  8
0
100
AcDbLine
 10
100.0
 20
140.0
 30
0.0
 11
140.0
 21
140.0
 31
0.0
  0
LINE
  5
124
330
544
100
AcDbEntity
  8
0
100
AcDbLine
 10
100.0
 20
80.0
 30
0.0
 11
160.0
 21
80.0
 31
0.0
  0
LINE
  5
185
330
544
100
AcDbEntity
  8
0
100
AcDbLine
 10
100.0
 20
30.0
 30
0.0
 11
140.0
 21
30.0
 31
0.0
  0
LINE
  5
B9
330
544
100
AcDbEntity
  8
0
100
AcDbLine
 10
100.0
 20
156.0
 30
0.0
 11
102.0
 21
155.0
 31
0.0
  0
LINE
  5
11D
330
544
100
AcDbEntity
  8
0
100
AcDbLine
 10
70.0
 20
91.0
 30
0.0
 11
72.0
 21
90.0
 31
0.0
  0
LINE
  5
1CB
330
544
100
AcDbEntity
  8
0
100
AcDbLine
 10
260.0
 20
91.0
 30
0.0
 11
262.0
 21
90.0
 31
0.0
  0
LINE
  5
BA
330
544
100
AcDbEntity
  8
0
100
AcDbLine
 10
102.0
 20
155.0
 30
0.0
 11
100.0
 21
154.0
 31
0.0
  0
LINE
  5
11E
330
544
100
AcDbEntity
  8
0
100
AcDbLine
 10
72.0
 20
90.0
 30
0.0
 11
70.0
 21
89.0
 31
0.0
  0
LINE
  5
1CC
330
544
100
AcDbEntity
  8
0
100
AcDbLine
 10
262.0
 20
90.0
 30
0.0
 11
260.0
 21
89.0
 31
0.0
  0
LINE
  5
BB
330
544
100
AcDbEntity
  8
0
100
AcDbLine
 10
100.0
 20
154.0
 30
0.0
 11
100.0
 21
156.0
 31
0.0
  0
LINE
  5
11F
330
544
100
AcDbEntity
  8
0
100
AcDbLine
 10
70.0
 20
89.0
 30
0.0
 11
70.0
 21
91.0
 31
0.0
  0
LINE
  5
1CD
330
544
100
AcDbEntity
  8
0
100
AcDbLine
 10
260.0
 20
89.0
 30
0.0
 11
260.0
 21
91.0
 31
0.0
  0
LINE
  5
BC
330
544
100
AcDbEntity
  8
0
100
AcDbLine
 10
100.0
 20
151.0
 30
0.0
 11
102.0
 21
150.0
 31
0.0
  0
LINE
  5
BD
330
544
100
AcDbEntity
  8
0
100
AcDbLine
 10
102.0
 20
150.0
 30
0.0
 11
100.0
 21
149.0
 31
0.0
  0
LINE
  5
BE
330
544
100
AcDbEntity
  8
0
100
AcDbLine
 10
100.0
 20
149.0
 30
0.0
 11
100.0
 21
151.0
 31
0.0
  0
LINE
  5
BF
330
544
100
AcDbEntity
  8
0
100
AcDbLine
 10
100.0
 20
146.0
 30
0.0
 11
102.0
 21
145.0
 31
0.0
  0
LINE
  5
125
330
544
100
AcDbEntity
  8
0
100
AcDbLine
 10
100.0
 20
86.0
 30
0.0
 11
102.0
 21
85.0
 31
0.0
  0
LINE
  5
186
330
544
100
AcDbEntity
  8
0
100
AcDbLine
 10
100.0
 20
36.0
 30
0.0
 11
102.0
 21
35.0
 31
0.0
  0
LINE
  5
C0
330
544
100
AcDbEntity
  8
0
100
AcDbLine
 10
102.0
 20
145.0
 30
0.0
 11
100.0
 21
144.0
 31
0.0
  0
LINE
  5
126
330
544
100
AcDbEntity
  8
0
100
AcDbLine
 10
102.0
 20
85.0
 30
0.0
 11
100.0
 21
84.0
 31
0.0
  0
LINE
  5
187
330
544
100
AcDbEntity
  8
0
100
AcDbLine
 10
102.0
 20
35.0
 30
0.0
 11
100.0
 21
34.0
 31
0.0
  0
LINE
  5
C1
330
544
100
AcDbEntity
  8
0
100
AcDbLine
 10
100.0
 20
144.0
 30
0.0
 11
100.0
 21
146.0
 31
0.0
  0
LINE
  5
127
330
544
100
AcDbEntity
  8
0
100
AcDbLine
 10
100.0
 20
84.0
 30
0.0
 11
100.0
 21
86.0
 31
0.0
  0
LINE
  5
188
330
544
100
AcDbEntity
  8
0
100
AcDbLine
 10
100.0
 20
34.0
 30
0.0
 11
100.0
 21
36.0
 31
0.0
  0
LINE
  5
C2
330
544
100
AcDbEntity
  8
0
100
AcDbLine
 10
100.0
 20
141.0
 30
0.0
 11
102.0
 21
140.0
 31
0.0
  0
LINE
  5
128
330
544
100
AcDbEntity
  8
0
100
AcDbLine
 10
100.0
 20
81.0
 30
0.0
 11
102.0
 21
80.0
 31
0.0
  0
LINE
  5
167
330
544
100
AcDbEntity
  8
0
100
AcDbLine
 10
100.0
 20
61.0
 30
0.0
 11
102.0
 21
60.0
 31
0.0
  0
LINE
  5
16D
330
544
100
AcDbEntity
  8
0
100
AcDbLine
 10
100.0
 20
56.0
 30
0.0
 11
102.0
 21
55.0
 31
0.0
  0
LINE
  5
189
330
544
100
AcDbEntity
  8
0
100
AcDbLine
 10
100.0
 20
31.0
 30
0.0
 11
102.0
 21
30.0
 31
0.0
  0
LINE
  5
C3
330
544
100
AcDbEntity
  8
0
100
AcDbLine
 10
102.0
 20
140.0
 30
0.0
 11
100.0
 21
139.0
 31
0.0
  0
LINE
  5
129
330
544
100
AcDbEntity
  8
0
100
AcDbLine
 10
102.0
 20
80.0
 30
0.0
 11
100.0
 21
79.0
 31
0.0
  0
LINE
  5
168
330
544
100
AcDbEntity
  8
0
100
AcDbLine
 10
102.0
 20
60.0
 30
0.0
 11
100.0
 21
59.0
 31
0.0
  0
LINE
  5
16E
330
544
100
AcDbEntity
  8
0
100
AcDbLine
 10
102.0
 20
55.0
 30
0.0
 11
100.0
 21
54.0
 31
0.0
  0
LINE
  5
18A
330
544
100
AcDbEntity
  8
0
100
AcDbLine
 10
102.0
 20
30.0
 30
0.0
 11
100.0
 21
29.0
 31
0.0
  0
LINE
  5
C4
330
544
100
AcDbEntity
  8
0
100
AcDbLine
 10
100.0
 20
139.0
 30
0.0
 11
100.0
 21
141.0
 31
0.0
  0
LINE
  5
12A
330
544
100
AcDbEntity
  8
0
100
AcDbLine
 10
100.0
 20
79.0
 30
0.0
 11
100.0
 21
81.0
 31
0.0
  0
LINE
  5
169
330
544
100
AcDbEntity
  8
0
100
AcDbLine
 10
100.0
 20
59.0
 30
0.0
 11
100.0
 21
61.0
 31
0.0
  0
LINE
  5
16F
330
544
100
AcDbEntity
  8
0
100
AcDbLine
 10
100.0
 20
54.0
 30
0.0
 11
100.0
 21
56.0
 31
0.0
  0
LINE
  5
18B
330
544
100
AcDbEntity
  8
0
100
AcDbLine
 10
100.0
 20
29.0
 30
0.0
 11
100.0
 21
31.0
 31
0.0
  0
MTEXT
  5
C5
330
544
100
AcDbEntity
  8
0
100
AcDbMText
 10
143.0
 20
155.0
 30
0.0
 40
2.0
 41
0.0
 46
0.0
 71
     4
 72
     1
  1
3 - 2
  7
textstyle42
 73
     1
 44
1.0
  0
MTEXT
  5
C6
330
544
100
AcDbEntity
  8
0
100
AcDbMText
 10
143.1666657001628
 20
150.0
 30
0.0
 40
2.0
 41
0.0
 46
0.0
 71
     4
 72
     1
  1
3 - 5
  7
textstyle43
 73
     1
 44
1.0
  0
MTEXT
  5
C7
330
544
100
AcDbEntity
  8
0
100
AcDbMText
 10
143.1666657001628
 20
145.0
 30
0.0
 40
2.0
 41
0.0
 46
0.0
 71
     4
 72
     1
  1
3 - 6
  7
textstyle44
 73
     1
 44
1.0
  0
MTEXT
  5
C8
330
544
100
AcDbEntity
  8
0
100
AcDbMText
 10
143.1666657001628
 20
140.0
 30
0.0
 40
2.0
 41
0.0
 46
0.0
 71
     4
 72
     1
  1
3 - 3
  7
textstyle45
 73
     1
 44
1.0
  0
MTEXT
  5
18C
330
544
100
AcDbEntity
  8
0
100
AcDbMText
 10
143.1666657001628
 20
35.00000000000004
 30
0.0
 40
2.0
 41
0.0
 46
0.0
 71
     4
 72
     1
  1
1-2
  7
textstyle46
 73
     1
 44
1.0
  0
MTEXT
  5
18D
330
544
100
AcDbEntity
  8
0
100
AcDbMText
 10
143.1666657001628
 20
30.00000000000006
 30
0.0
 40
2.0
 41
0.0
 46
0.0
 71
     4
 72
     1
  1
1-19
  7
textstyle47
 73
     1
 44
1.0
  0
MTEXT
  5
219
330
544
100
AcDbEntity
  8
0
100
AcDbMText
 10
237.0
 20
155.0000000000001
 30
0.0
 40
2.0
 41
0.0
 46
0.0
 71
     6
 72
     1
  1
2-1
  7
textstyle48
 73
     1
 44
1.0
  0
MTEXT
  5
21D
330
544
100
AcDbEntity
  8
0
100
AcDbMText
 10
237.0
 20
145.0000000000001
 30
0.0
 40
2.0
 41
0.0
 46
0.0
 71
     6
 72
     1
  1
2-20
  7
textstyle49
 73
     1
 44
1.0
  0
MTEXT
  5
C9
330
544
100
AcDbEntity
  8
0
100
AcDbMText
 10
96.99999999999997
 20
155.0
 30
0.0
 40
2.0
 41
0.0
 46
0.0
 71
     6
 72
     1
  1
+15
  7
textstyle50
 73
     1
 44
1.0
  0
MTEXT
  5
CA
330
544
100
AcDbEntity
  8
0
100
AcDbMText
 10
97.77777777777777
 20
150.0
 30
0.0
 40
2.0
 41
0.0
 46
0.0
 71
     6
 72
     1
  1
0
  7
textstyle51
 73
     1
 44
1.0
  0
MTEXT
  5
CB
330
544
100
AcDbEntity
  8
0
100
AcDbMText
 10
97.77777777777779
 20
145.0
 30
0.0
 40
2.0
 41
0.0
 46
0.0
 71
     6
 72
     1
  1
0
  7
textstyle52
 73
     1
 44
1.0
  0
MTEXT
  5
CC
330
544
100
AcDbEntity
  8
0
100
AcDbMText
 10
97.77777777777776
 20
140.0
 30
0.0
 40
2.0
 41
0.0
 46
0.0
 71
     6
 72
     1
  1
-15
  7
textstyle53
 73
     1
 44
1.0
  0
MTEXT
  5
120
330
544
100
AcDbEntity
  8
0
100
AcDbMText
 10
67.99999999999999
 20
92.0
 30
0.0
 40
2.0
 41
0.0
 46
0.0
 71
     7
 72
     1
  1
+24 (EXTERNAL)
  7
textstyle54
 73
     1
 44
1.0
  0
MTEXT
  5
12D
330
544
100
AcDbEntity
  8
0
100
AcDbMText
 10
98.0
 20
84.99999999999999
 30
0.0
 40
2.0
 41
0.0
 46
0.0
 71
     6
 72
     1
  1
FX1
  7
textstyle55
 73
     1
 44
1.0
  0
MTEXT
  5
12E
330
544
100
AcDbEntity
  8
0
100
AcDbMText
 10
98.0
 20
79.99999999999996
 30
0.0
 40
2.0
 41
0.0
 46
0.0
 71
     6
 72
     1
  1
FX2
  7
textstyle56
 73
     1
 44
1.0
  0
MTEXT
  5
180
330
544
100
AcDbEntity
  8
0
100
AcDbMText
 10
97.99999999999997
 20
59.99999999999997
 30
0.0
 40
2.0
 41
0.0
 46
0.0
 71
     6
 72
     1
  1
OLX2
  7
textstyle57
 73
     1
 44
1.0
  0
MTEXT
  5
181
330
544
100
AcDbEntity
  8
0
100
AcDbMText
 10
97.99999999999999
 20
54.99999999999994
 30
0.0
 40
2.0
 41
0.0
 46
0.0
 71
     6
 72
     1
  1
OLY2
  7
textstyle58
 73
     1
 44
1.0
  0
MTEXT
  5
18E
330
544
100
AcDbEntity
  8
0
100
AcDbMText
 10
97.77777777777771
 20
34.99999999999994
 30
0.0
 40
2.0
 41
0.0
 46
0.0
 71
     6
 72
     1
  1
OAX
  7
textstyle59
 73
     1
 44
1.0
  0
MTEXT
  5
18F
330
544
100
AcDbEntity
  8
0
100
AcDbMText
 10
97.77777777777779
 20
30.00000000000001
 30
0.0
 40
2.0
 41
0.0
 46
0.0
 71
     6
 72
     1
  1
SG
  7
textstyle60
 73
     1
 44
1.0
  0
MTEXT
  5
1CE
330
544
100
AcDbEntity
  8
0
100
AcDbMText
 10
258.0
 20
92.00000000000004
 30
0.0
 40
2.0
 41
0.0
 46
0.0
 71
     7
 72
     1
  1
+24 (EXTERNAL)
  7
textstyle61
 73
     1
 44
1.0
  0
MTEXT
  5
276
330
544
100
AcDbEntity
  8
0
100
AcDbMText
 10
50.00000000000001
 20
121.0
 30
0.0
 40
2.0
 41
0.0
 46
0.0
 71
     7
 72
     1
  1
0V (EXTERNAL)
  7
textstyle62
 73
     1
 44
1.0
  0
LINE
  5
D1
330
544
100
AcDbEntity
  8
0
100
AcDbLine
 10
141.5
 20
156.5
 30
0.0
 11
138.5
 21
153.5
 31
0.0
  0
LINE
  5
D2
330
544
100
AcDbEntity
  8
0
100
AcDbLine
 10
141.5
 20
151.5
 30
0.0
 11
138.5
 21
148.5
 31
0.0
  0
LINE
  5
D3
330
544
100
AcDbEntity
  8
0
100
AcDbLine
 10
141.5
 20
146.5
 30
0.0
 11
138.5
 21
143.5
 31
0.0
  0
LINE
  5
D4
330
544
100
AcDbEntity
  8
0
100
AcDbLine
 10
141.5
 20
141.5
 30
0.0
 11
138.5
 21
138.5
 31
0.0
  0
LINE
  5
D5
330
544
100
AcDbEntity
  8
0
100
AcDbLine
 10
141.5
 20
165.5
 30
0.0
 11
138.5
 21
162.5
 31
0.0
  0
LINE
  5
D6
330
544
100
AcDbEntity
  8
0
100
AcDbLine
 10
141.5
 20
181.5
 30
0.0
 11
138.5
 21
178.5
 31
0.0
  0
LINE
  5
D7
330
544
100
AcDbEntity
  8
0
100
AcDbLine
 10
141.5
 20
185.5
 30
0.0
 11
138.5
 21
182.5
 31
0.0
  0
LINE
  5
D8
330
544
100
AcDbEntity
  8
0
100
AcDbLine
 10
141.5
 20
201.5
 30
0.0
 11
138.5
 21
198.5
 31
0.0
  0
LINE
  5
F6
330
544
100
AcDbEntity
  8
0
100
AcDbLine
 10
141.5
 20
111.5
 30
0.0
 11
138.5
 21
108.5
 31
0.0
  0
LINE
  5
F8
330
544
100
AcDbEntity
  8
0
100
AcDbLine
 10
141.5
 20
101.5
 30
0.0
 11
138.5
 21
98.5
 31
0.0
  0
LINE
  5
11C
330
544
100
AcDbEntity
  8
0
100
AcDbLine
 10
141.5
 20
91.5
 30
0.0
 11
138.5
 21
88.5
 31
0.0
  0
LINE
  5
12F
330
544
100
AcDbEntity
  8
0
100
AcDbLine
 10
141.5
 20
86.49999999999999
 30
0.0
 11
138.5
 21
83.49999999999999
 31
0.0
  0
LINE
  5
130
330
544
100
AcDbEntity
  8
0
100
AcDbLine
 10
141.5
 20
81.49999999999999
 30
0.0
 11
138.5
 21
78.49999999999999
 31
0.0
  0
LINE
  5
16A
330
544
100
AcDbEntity
  8
0
100
AcDbLine
 10
141.5
 20
61.5
 30
0.0
 11
138.5
 21
58.5
 31
0.0
  0
LINE
  5
170
330
544
100
AcDbEntity
  8
0
100
AcDbLine
 10
141.5
 20
56.5
 30
0.0
 11
138.5
 21
53.5
 31
0.0
  0
LINE
  5
174
330
544
100
AcDbEntity
  8
0
100
AcDbLine
 10
241.5
 20
61.5
 30
0.0
 11
238.5
 21
58.5
 31
0.0
  0
LINE
  5
175
330
544
100
AcDbEntity
  8
0
100
AcDbLine
 10
241.5
 20
56.5
 30
0.0
 11
238.5
 21
53.5
 31
0.0
  0
LINE
  5
190
330
544
100
AcDbEntity
  8
0
100
AcDbLine
 10
141.5
 20
36.5
 30
0.0
 11
138.5
 21
33.5
 31
0.0
  0
LINE
  5
191
330
544
100
AcDbEntity
  8
0
100
AcDbLine
 10
141.5
 20
31.5
 30
0.0
 11
138.5
 21
28.5
 31
0.0
  0
LINE
  5
1C7
330
544
100
AcDbEntity
  8
0
100
AcDbLine
 10
241.5
 20
111.5
 30
0.0
 11
238.5
 21
108.5
 31
0.0
  0
LINE
  5
1C8
330
544
100
AcDbEntity
  8
0
100
AcDbLine
 10
241.5
 20
101.5
 30
0.0
 11
238.5
 21
98.5
 31
0.0
  0
LINE
  5
1DD
330
544
100
AcDbEntity
  8
0
100
AcDbLine
 10
241.5
 20
41.5
 30
0.0
 11
238.5
 21
38.5
 31
0.0
  0
LINE
  5
1DE
330
544
100
AcDbEntity
  8
0
100
AcDbLine
 10
241.5
 20
31.5
 30
0.0
 11
238.5
 21
28.5
 31
0.0
  0
LINE
  5
215
330
544
100
AcDbEntity
  8
0
100
AcDbLine
 10
241.5
 20
201.5
 30
0.0
 11
238.5
 21
198.5
 31
0.0
  0
LINE
  5
217
330
544
100
AcDbEntity
  8
0
100
AcDbLine
 10
241.5
 20
165.5
 30
0.0
 11
238.5
 21
162.5
 31
0.0
  0
LINE
  5
21A
330
544
100
AcDbEntity
  8
0
100
AcDbLine
 10
241.5
 20
156.5
 30
0.0
 11
238.5
 21
153.5
 31
0.0
  0
LINE
  5
21E
330
544
100
AcDbEntity
  8
0
100
AcDbLine
 10
241.5
 20
146.5
 30
0.0
 11
238.5
 21
143.5
 31
0.0
  0
LINE
  5
226
330
544
100
AcDbEntity
  8
0
100
AcDbLine
 10
301.5
 20
156.5
 30
0.0
 11
298.5
 21
153.5
 31
0.0
  0
LINE
  5
227
330
544
100
AcDbEntity
  8
0
100
AcDbLine
 10
301.5
 20
146.5
 30
0.0
 11
298.5
 21
143.5
 31
0.0
  0
LINE
  5
E1
330
544
100
AcDbEntity
  8
0
100
AcDbLine
 10
152.0
 20
110.0
 30
0.0
 11
70.0
 21
110.0
 31
0.0
  0
LINE
  5
E2
330
544
100
AcDbEntity
  8
0
100
AcDbLine
 10
152.0
 20
100.0
 30
0.0
 11
70.0
 21
100.0
 31
0.0
  0
ARC
  5
FE
330
544
100
AcDbEntity
  8
0
100
AcDbCircle
 10
153.0
 20
110.0
 30
0.0
 40
1.0
100
AcDbArc
 50
0.0
 51
180.0
  0
ARC
  5
FF
330
544
100
AcDbEntity
  8
0
100
AcDbCircle
 10
155.0
 20
110.0
 30
0.0
 40
1.0
100
AcDbArc
 50
0.0
 51
180.0
  0
ARC
  5
100
330
544
100
AcDbEntity
  8
0
100
AcDbCircle
 10
157.0
 20
110.0
 30
0.0
 40
1.0
100
AcDbArc
 50
0.0
 51
180.0
  0
ARC
  5
10A
330
544
100
AcDbEntity
  8
0
100
AcDbCircle
 10
153.0
 20
100.0
 30
0.0
 40
1.0
100
AcDbArc
 50
0.0
 51
180.0
  0
ARC
  5
10B
330
544
100
AcDbEntity
  8
0
100
AcDbCircle
 10
155.0
 20
100.0
 30
0.0
 40
1.0
100
AcDbArc
 50
0.0
 51
180.0
  0
ARC
  5
10C
330
544
100
AcDbEntity
  8
0
100
AcDbCircle
 10
157.0
 20
100.0
 30
0.0
 40
1.0
100
AcDbArc
 50
0.0
 51
180.0
  0
LINE
  5
FD
330
544
100
AcDbEntity
  8
0
100
AcDbLine
 10
158.0
 20
110.0
 30
0.0
 11
160.0
 21
110.0
 31
0.0
  0
LINE
  5
10D
330
544
100
AcDbEntity
  8
0
100
AcDbLine
 10
158.0
 20
100.0
 30
0.0
 11
160.0
 21
100.0
 31
0.0
  0
LINE
  5
101
330
544
100
AcDbEntity
  8
0
100
AcDbLine
 10
160.0
 20
110.0
 30
0.0
 11
160.0
 21
105.0
 31
0.0
  0
LINE
  5
10E
330
544
100
AcDbEntity
  8
0
100
AcDbLine
 10
160.0
 20
105.0
 30
0.0
 11
160.0
 21
90.0
 31
0.0
  0
LINE
  5
102
330
544
100
AcDbEntity
  8
0
100
AcDbLine
 10
160.0
 20
107.0
 30
0.0
 11
157.0
 21
107.0
 31
0.0
  0
LINE
  5
10F
330
544
100
AcDbEntity
  8
0
100
AcDbLine
 10
160.0
 20
97.0
 30
0.0
 11
157.0
 21
97.0
 31
0.0
  0
LINE
  5
103
330
544
100
AcDbEntity
  8
0
100
AcDbLine
 10
157.0
 20
106.0
 30
0.0
 11
157.0
 21
108.0
 31
0.0
  0
LINE
  5
110
330
544
100
AcDbEntity
  8
0
100
AcDbLine
 10
157.0
 20
96.0
 30
0.0
 11
157.0
 21
98.0
 31
0.0
  0
LINE
  5
104
330
544
100
AcDbEntity
  8
0
100
AcDbLine
 10
157.0
 20
108.0
 30
0.0
 11
153.0
 21
108.0
 31
0.0
  0
LINE
  5
111
330
544
100
AcDbEntity
  8
0
100
AcDbLine
 10
157.0
 20
98.0
 30
0.0
 11
153.0
 21
98.0
 31
0.0
  0
LINE
  5
105
330
544
100
AcDbEntity
  8
0
100
AcDbLine
 10
153.0
 20
108.0
 30
0.0
 11
153.0
 21
106.0
 31
0.0
  0
LINE
  5
112
330
544
100
AcDbEntity
  8
0
100
AcDbLine
 10
153.0
 20
98.0
 30
0.0
 11
153.0
 21
96.0
 31
0.0
  0
LINE
  5
106
330
544
100
AcDbEntity
  8
0
100
AcDbLine
 10
153.0
 20
106.0
 30
0.0
 11
157.0
 21
106.0
 31
0.0
  0
LINE
  5
113
330
544
100
AcDbEntity
  8
0
100
AcDbLine
 10
153.0
 20
96.0
 30
0.0
 11
157.0
 21
96.0
 31
0.0
  0
LINE
  5
108
330
544
100
AcDbEntity
  8
0
100
AcDbLine
 10
153.0
 20
107.0
 30
0.0
 11
150.0
 21
107.0
 31
0.0
  0
LINE
  5
114
330
544
100
AcDbEntity
  8
0
100
AcDbLine
 10
153.0
 20
97.0
 30
0.0
 11
150.0
 21
97.0
 31
0.0
  0
LINE
  5
109
330
544
100
AcDbEntity
  8
0
100
AcDbLine
 10
150.0
 20
107.0
 30
0.0
 11
150.0
 21
110.0
 31
0.0
  0
LINE
  5
115
330
544
100
AcDbEntity
  8
0
100
AcDbLine
 10
150.0
 20
97.0
 30
0.0
 11
150.0
 21
100.0
 31
0.0
  0
LINE
  5
116
330
544
100
AcDbEntity
  8
0
100
AcDbLine
 10
160.0
 20
90.0
 30
0.0
 11
70.0
 21
90.0
 31
0.0
  0
MTEXT
  5
118
330
544
100
AcDbEntity
  8
0
100
AcDbMText
 10
145.0
 20
108.9999999999997
 30
0.0
 40
2.0
 41
0.0
 46
0.0
 71
     2
 72
     1
  1
2-3\P(2-18)
  7
textstyle63
 73
     1
 44
1.0
  0
MTEXT
  5
119
330
544
100
AcDbEntity
  8
0
100
AcDbMText
 10
145.0
 20
98.99999999999982
 30
0.0
 40
2.0
 41
0.0
 46
0.0
 71
     2
 72
     1
  1
2-4\P(2-17)
  7
textstyle64
 73
     1
 44
1.0
  0
MTEXT
  5
11A
330
544
100
AcDbEntity
  8
0
100
AcDbMText
 10
145.0
 20
88.99999999999973
 30
0.0
 40
2.0
 41
0.0
 46
0.0
 71
     2
 72
     1
  1
3-1
  7
textstyle65
 73
     1
 44
1.0
  0
MTEXT
  5
13B
330
544
100
AcDbEntity
  8
0
100
AcDbMText
 10
145.0
 20
83.99999999999969
 30
0.0
 40
2.0
 41
0.0
 46
0.0
 71
     1
 72
     1
  1
2-5 (2-16)
  7
textstyle66
 73
     1
 44
1.0
  0
MTEXT
  5
13C
330
544
100
AcDbEntity
  8
0
100
AcDbMText
 10
145.0
 20
78.99999999999974
 30
0.0
 40
2.0
 41
0.0
 46
0.0
 71
     1
 72
     1
  1
2-6 (2-15)
  7
textstyle67
 73
     1
 44
1.0
  0
MTEXT
  5
172
330
544
100
AcDbEntity
  8
0
100
AcDbMText
 10
143.0
 20
58.99999999999967
 30
0.0
 40
2.0
 41
0.0
 46
0.0
 71
     1
 72
     1
  1
2-7 (2-14)
  7
textstyle68
 73
     1
 44
1.0
  0
MTEXT
  5
173
330
544
100
AcDbEntity
  8
0
100
AcDbMText
 10
143.0
 20
53.9999999999995
 30
0.0
 40
2.0
 41
0.0
 46
0.0
 71
     1
 72
     1
  1
2-13 (2-8)
  7
textstyle69
 73
     1
 44
1.0
  0
MTEXT
  5
281
330
544
100
AcDbEntity
  8
0
100
AcDbMText
 10
185.0
 20
115.9999999999999
 30
0.0
 40
2.0
 41
0.0
 46
0.0
 71
     2
 72
     1
  1
2PR
  7
textstyle70
 73
     1
 44
1.0
  0
MTEXT
  5
282
330
544
100
AcDbEntity
  8
0
100
AcDbMText
 10
185.0
 20
106.0
 30
0.0
 40
2.0
 41
0.0
 46
0.0
 71
     2
 72
     1
  1
3PR
  7
textstyle71
 73
     1
 44
1.0
  0
MTEXT
  5
283
330
544
100
AcDbEntity
  8
0
100
AcDbMText
 10
155.0
 20
114.0
 30
0.0
 40
2.0
 41
0.0
 46
0.0
 71
     2
 72
     1
  1
2PR
  7
textstyle72
 73
     1
 44
1.0
  0
MTEXT
  5
284
330
544
100
AcDbEntity
  8
0
100
AcDbMText
 10
155.0
 20
104.0
 30
0.0
 40
2.0
 41
0.0
 46
0.0
 71
     2
 72
     1
  1
3PR
  7
textstyle73
 73
     1
 44
1.0
  0
LINE
  5
131
330
544
100
AcDbEntity
  8
0
100
AcDbLine
 10
160.0
 20
80.0
 30
0.0
 11
160.0
 21
85.0
 31
0.0
  0
LINE
  5
132
330
544
100
AcDbEntity
  8
0
100
AcDbLine
 10
160.0
 20
85.0
 30
0.0
 11
157.0
 21
85.0
 31
0.0
  0
CIRCLE
  5
133
330
544
100
AcDbEntity
  8
0
100
AcDbCircle
 10
153.0
 20
85.0
 30
0.0
 40
0.5000000000000142
  0
CIRCLE
  5
134
330
544
100
AcDbEntity
  8
0
100
AcDbCircle
 10
157.0
 20
85.0
 30
0.0
 40
0.5000000000000142
  0
CIRCLE
  5
142
330
544
100
AcDbEntity
  8
0
100
AcDbCircle
 10
140.0
 20
90.0
 30
0.0
 40
0.5000000000000142
  0
CIRCLE
  5
143
330
544
100
AcDbEntity
  8
0
100
AcDbCircle
 10
140.0
 20
85.0
 30
0.0
 40
0.5000000000000142
  0
CIRCLE
  5
144
330
544
100
AcDbEntity
  8
0
100
AcDbCircle
 10
140.0
 20
80.0
 30
0.0
 40
0.5000000000000142
  0
CIRCLE
  5
145
330
544
100
AcDbEntity
  8
0
100
AcDbCircle
 10
140.0
 20
100.0
 30
0.0
 40
0.5000000000000142
  0
CIRCLE
  5
146
330
544
100
AcDbEntity
  8
0
100
AcDbCircle
 10
140.0
 20
110.0
 30
0.0
 40
0.5000000000000142
  0
CIRCLE
  5
14B
330
544
100
AcDbEntity
  8
0
100
AcDbCircle
 10
140.0
 20
155.0
 30
0.0
 40
0.5000000000000142
  0
CIRCLE
  5
14C
330
544
100
AcDbEntity
  8
0
100
AcDbCircle
 10
140.0
 20
150.0
 30
0.0
 40
0.5000000000000142
  0
CIRCLE
  5
14D
330
544
100
AcDbEntity
  8
0
100
AcDbCircle
 10
140.0
 20
145.0
 30
0.0
 40
0.5000000000000142
  0
CIRCLE
  5
14E
330
544
100
AcDbEntity
  8
0
100
AcDbCircle
 10
140.0
 20
140.0
 30
0.0
 40
0.5000000000000142
  0
CIRCLE
  5
14F
330
544
100
AcDbEntity
  8
0
100
AcDbCircle
 10
65.0
 20
132.0
 30
0.0
 40
0.5000000000000142
  0
CIRCLE
  5
150
330
544
100
AcDbEntity
  8
0
100
AcDbCircle
 10
65.0
 20
140.0
 30
0.0
 40
0.5000000000000142
  0
CIRCLE
  5
151
330
544
100
AcDbEntity
  8
0
100
AcDbCircle
 10
45.00000000000009
 20
132.0
 30
0.0
 40
0.5000000000000142
  0
CIRCLE
  5
152
330
544
100
AcDbEntity
  8
0
100
AcDbCircle
 10
65.0
 20
152.0
 30
0.0
 40
0.5000000000000142
  0
CIRCLE
  5
153
330
544
100
AcDbEntity
  8
0
100
AcDbCircle
 10
65.0
 20
160.0
 30
0.0
 40
0.5000000000000142
  0
CIRCLE
  5
154
330
544
100
AcDbEntity
  8
0
100
AcDbCircle
 10
65.0
 20
176.0
 30
0.0
 40
0.5000000000000142
  0
CIRCLE
  5
155
330
544
100
AcDbEntity
  8
0
100
AcDbCircle
 10
65.0
 20
188.0
 30
0.0
 40
0.5000000000000142
  0
CIRCLE
  5
156
330
544
100
AcDbEntity
  8
0
100
AcDbCircle
 10
65.0
 20
196.0
 30
0.0
 40
0.5000000000000142
  0
CIRCLE
  5
157
330
544
100
AcDbEntity
  8
0
100
AcDbCircle
 10
86.0
 20
200.0
 30
0.0
 40
0.5000000000000142
  0
CIRCLE
  5
158
330
544
100
AcDbEntity
  8
0
100
AcDbCircle
 10
86.0
 20
184.0
 30
0.0
 40
0.5000000000000142
  0
CIRCLE
  5
159
330
544
100
AcDbEntity
  8
0
100
AcDbCircle
 10
86.0
 20
180.0
 30
0.0
 40
0.5000000000000142
  0
CIRCLE
  5
15A
330
544
100
AcDbEntity
  8
0
100
AcDbCircle
 10
86.0
 20
164.0
 30
0.0
 40
0.5000000000000142
  0
CIRCLE
  5
15B
330
544
100
AcDbEntity
  8
0
100
AcDbCircle
 10
50.0
 20
188.0
 30
0.0
 40
0.5000000000000142
  0
CIRCLE
  5
15C
330
544
100
AcDbEntity
  8
0
100
AcDbCircle
 10
70.00000000000018
 20
168.0
 30
0.0
 40
0.5000000000000142
  0
CIRCLE
  5
16B
330
544
100
AcDbEntity
  8
0
100
AcDbCircle
 10
140.0
 20
60.0
 30
0.0
 40
0.5000000000000142
  0
CIRCLE
  5
171
330
544
100
AcDbEntity
  8
0
100
AcDbCircle
 10
140.0
 20
55.0
 30
0.0
 40
0.5000000000000142
  0
CIRCLE
  5
17A
330
544
100
AcDbEntity
  8
0
100
AcDbCircle
 10
248.0
 20
60.0
 30
0.0
 40
0.5000000000000142
  0
CIRCLE
  5
17B
330
544
100
AcDbEntity
  8
0
100
AcDbCircle
 10
252.0
 20
60.0
 30
0.0
 40
0.5000000000000142
  0
CIRCLE
  5
194
330
544
100
AcDbEntity
  8
0
100
AcDbCircle
 10
140.0
 20
35.0
 30
0.0
 40
0.5000000000000142
  0
CIRCLE
  5
195
330
544
100
AcDbEntity
  8
0
100
AcDbCircle
 10
140.0
 20
30.0
 30
0.0
 40
0.5000000000000142
  0
CIRCLE
  5
196
330
544
100
AcDbEntity
  8
0
100
AcDbCircle
 10
66.0
 20
110.0
 30
0.0
 40
0.5000000000000142
  0
CIRCLE
  5
197
330
544
100
AcDbEntity
  8
0
100
AcDbCircle
 10
70.0
 20
110.0
 30
0.0
 40
0.5000000000000142
  0
CIRCLE
  5
19D
330
544
100
AcDbEntity
  8
0
100
AcDbCircle
 10
66.0
 20
100.0
 30
0.0
 40
0.5000000000000142
  0
CIRCLE
  5
19E
330
544
100
AcDbEntity
  8
0
100
AcDbCircle
 10
70.0
 20
100.0
 30
0.0
 40
0.5000000000000142
  0
CIRCLE
  5
1AF
330
544
100
AcDbEntity
  8
0
100
AcDbCircle
 10
183.0
 20
110.0
 30
0.0
 40
0.5000000000000142
  0
CIRCLE
  5
1B0
330
544
100
AcDbEntity
  8
0
100
AcDbCircle
 10
187.0
 20
110.0
 30
0.0
 40
0.5000000000000142
  0
CIRCLE
  5
1BA
330
544
100
AcDbEntity
  8
0
100
AcDbCircle
 10
183.0
 20
100.0
 30
0.0
 40
0.5000000000000142
  0
CIRCLE
  5
1BB
330
544
100
AcDbEntity
  8
0
100
AcDbCircle
 10
187.0
 20
100.0
 30
0.0
 40
0.5000000000000142
  0
CIRCLE
  5
1C9
330
544
100
AcDbEntity
  8
0
100
AcDbCircle
 10
240.0
 20
100.0
 30
0.0
 40
0.5000000000000142
  0
CIRCLE
  5
1CA
330
544
100
AcDbEntity
  8
0
100
AcDbCircle
 10
240.0
 20
110.0
 30
0.0
 40
0.5000000000000142
  0
CIRCLE
  5
1DF
330
544
100
AcDbEntity
  8
0
100
AcDbCircle
 10
240.0
 20
40.0
 30
0.0
 40
0.5000000000000142
  0
CIRCLE
  5
1E0
330
544
100
AcDbEntity
  8
0
100
AcDbCircle
 10
240.0
 20
30.0
 30
0.0
 40
0.5000000000000142
  0
CIRCLE
  5
21B
330
544
100
AcDbEntity
  8
0
100
AcDbCircle
 10
240.0
 20
155.0
 30
0.0
 40
0.5000000000000142
  0
CIRCLE
  5
21F
330
544
100
AcDbEntity
  8
0
100
AcDbCircle
 10
240.0
 20
145.0
 30
0.0
 40
0.5000000000000142
  0
CIRCLE
  5
228
330
544
100
AcDbEntity
  8
0
100
AcDbCircle
 10
300.0
 20
155.0
 30
0.0
 40
0.5000000000000142
  0
CIRCLE
  5
229
330
544
100
AcDbEntity
  8
0
100
AcDbCircle
 10
300.0
 20
145.0
 30
0.0
 40
0.5000000000000142
  0
LINE
  5
135
330
544
100
AcDbEntity
  8
0
100
AcDbLine
 10
152.5
 20
86.5
 30
0.0
 11
157.6
 21
86.5
 31
0.0
  0
MTEXT
  5
136
330
544
100
AcDbEntity
  8
0
100
AcDbMText
 10
155.0
 20
87.00000000000004
 30
0.0
 40
2.0
 41
0.0
 46
0.0
 71
     8
 72
     1
  1
FUX
  7
textstyle74
 73
     1
 44
1.0
  0
LINE
  5
163
330
544
100
AcDbEntity
  8
0
100
AcDbLine
 10
100.0
 20
60.0
 30
0.0
 11
245.0
 21
60.0
 31
0.0
  0
LINE
  5
164
330
544
100
AcDbEntity
  8
0
100
AcDbLine
 10
260.0
 20
60.0
 30
0.0
 11
260.0
 21
55.0
 31
0.0
  0
LINE
  5
165
330
544
100
AcDbEntity
  8
0
100
AcDbLine
 10
260.0
 20
55.0
 30
0.0
 11
100.0
 21
55.0
 31
0.0
  0
MTEXT
  5
176
330
544
100
AcDbEntity
  8
0
100
AcDbMText
 10
237.0
 20
58.99999999999999
 30
0.0
 40
2.0
 41
0.0
 46
0.0
 71
     3
 72
     1
  1
7
  7
textstyle75
 73
     1
 44
1.0
  0
MTEXT
  5
177
330
544
100
AcDbEntity
  8
0
100
AcDbMText
 10
237.0
 20
53.99999999999992
 30
0.0
 40
2.0
 41
0.0
 46
0.0
 71
     3
 72
     1
  1
8
  7
textstyle76
 73
     1
 44
1.0
  0
LINE
  5
178
330
544
100
AcDbEntity
  8
0
100
AcDbLine
 10
260.0
 20
60.0
 30
0.0
 11
252.0
 21
60.0
 31
0.0
  0
LINE
  5
179
330
544
100
AcDbEntity
  8
0
100
AcDbLine
 10
245.0
 20
60.0
 30
0.0
 11
248.0
 21
60.0
 31
0.0
  0
LINE
  5
198
330
544
100
AcDbEntity
  8
0
100
AcDbLine
 10
50.0
 20
110.0
 30
0.0
 11
66.0
 21
110.0
 31
0.0
  0
LINE
  5
19F
330
544
100
AcDbEntity
  8
0
100
AcDbLine
 10
50.0
 20
100.0
 30
0.0
 11
66.0
 21
100.0
 31
0.0
  0
LINE
  5
1B1
330
544
100
AcDbEntity
  8
0
100
AcDbLine
 10
180.0
 20
110.0
 30
0.0
 11
183.0
 21
110.0
 31
0.0
  0
LINE
  5
1BC
330
544
100
AcDbEntity
  8
0
100
AcDbLine
 10
170.0
 20
100.0
 30
0.0
 11
183.0
 21
100.0
 31
0.0
  0
LINE
  5
17C
330
544
100
AcDbEntity
  8
0
100
AcDbLine
 10
252.5
 20
59.5
 30
0.0
 11
247.5
 21
59.5
 31
0.0
  0
LINE
  5
199
330
544
100
AcDbEntity
  8
0
100
AcDbLine
 10
70.49999999999997
 20
109.5
 30
0.0
 11
65.49999999999997
 21
109.5
 31
0.0
  0
LINE
  5
1A0
330
544
100
AcDbEntity
  8
0
100
AcDbLine
 10
70.49999999999997
 20
99.5
 30
0.0
 11
65.49999999999997
 21
99.5
 31
0.0
  0
LINE
  5
1B2
330
544
100
AcDbEntity
  8
0
100
AcDbLine
 10
187.5297050465055
 20
111.7059280311384
 30
0.0
 11
182.5297050465055
 21
111.7059280311384
 31
0.0
  0
LINE
  5
1BD
330
544
100
AcDbEntity
  8
0
100
AcDbLine
 10
187.5297050465055
 20
101.7059280311384
 30
0.0
 11
182.5297050465055
 21
101.7059280311384
 31
0.0
  0
MTEXT
  5
17D
330
544
100
AcDbEntity
  8
0
100
AcDbMText
 10
256.0
 20
60.99999999999991
 30
0.0
 40
2.0
 41
0.0
 46
0.0
 71
     8
 72
     1
  1
8
  7
textstyle77
 73
     1
 44
1.0
  0
MTEXT
  5
17E
330
544
100
AcDbEntity
  8
0
100
AcDbMText
 10
245.0
 20
60.99999999999997
 30
0.0
 40
2.0
 41
0.0
 46
0.0
 71
     8
 72
     1
  1
7
  7
textstyle78
 73
     1
 44
1.0
  0
MTEXT
  5
17F
330
544
100
AcDbEntity
  8
0
100
AcDbMText
 10
250.0
 20
63.99999999999986
 30
0.0
 40
2.0
 41
0.0
 46
0.0
 71
     8
 72
     1
  1
1THR
  7
textstyle79
 73
     1
 44
1.0
  0
MTEXT
  5
19C
330
544
100
AcDbEntity
  8
0
100
AcDbMText
 10
67.99999999999997
 20
111.9999999999999
 30
0.0
 40
2.0
 41
0.0
 46
0.0
 71
     7
 72
     1
  1
+LX (OVERTRAVEL + DIRECTION)
  7
textstyle80
 73
     1
 44
1.0
  0
MTEXT
  5
1A3
330
544
100
AcDbEntity
  8
0
100
AcDbMText
 10
67.99999999999999
 20
101.9999999999999
 30
0.0
 40
2.0
 41
0.0
 46
0.0
 71
     7
 72
     1
  1
-LX (OVERTRAVEL - DIRECTION)
  7
textstyle81
 73
     1
 44
1.0
  0
MTEXT
  5
1CF
330
544
100
AcDbEntity
  8
0
100
AcDbMText
 10
248.0
 20
112.0000000000009
 30
0.0
 40
2.0
 41
0.0
 46
0.0
 71
     7
 72
     1
  1
+LX (OVERTRAVEL + DIRECTION)
  7
textstyle82
 73
     1
 44
1.0
  0
MTEXT
  5
1D0
330
544
100
AcDbEntity
  8
0
100
AcDbMText
 10
248.0
 20
101.9999999999999
 30
0.0
 40
2.0
 41
0.0
 46
0.0
 71
     7
 72
     1
  1
-LX (OVERTRAVEL - DIRECTION)
  7
textstyle83
 73
     1
 44
1.0
  0
LINE
  5
1A4
330
544
100
AcDbEntity
  8
0
100
AcDbLine
 10
50.0
 20
120.0
 30
0.0
 11
50.0
 21
90.0
 31
0.0
  0
LINE
  5
1A5
330
544
100
AcDbEntity
  8
0
100
AcDbLine
 10
65.49999999999997
 20
109.5
 30
0.0
 11
65.5
 21
108.0
 31
0.0
  0
LINE
  5
1A8
330
544
100
AcDbEntity
  8
0
100
AcDbLine
 10
65.49999999999997
 20
99.5
 30
0.0
 11
65.5
 21
98.0
 31
0.0
  0
LINE
  5
1A6
330
544
100
AcDbEntity
  8
0
100
AcDbLine
 10
65.5
 20
108.0
 30
0.0
 11
70.5
 21
108.0
 31
0.0
  0
LINE
  5
1A9
330
544
100
AcDbEntity
  8
0
100
AcDbLine
 10
65.5
 20
98.0
 30
0.0
 11
70.5
 21
98.0
 31
0.0
  0
LINE
  5
1A7
330
544
100
AcDbEntity
  8
0
100
AcDbLine
 10
70.5
 20
108.0
 30
0.0
 11
70.49999999999997
 21
109.5
 31
0.0
  0
LINE
  5
1AA
330
544
100
AcDbEntity
  8
0
100
AcDbLine
 10
70.5
 20
98.0
 30
0.0
 11
70.49999999999997
 21
99.5
 31
0.0
  0
LINE
  5
1B8
330
544
100
AcDbEntity
  8
0
100
AcDbLine
 10
170.0
 20
110.0
 30
0.0
 11
182.5
 21
110.0
 31
0.0
  0
LINE
  5
1B9
330
544
100
AcDbEntity
  8
0
100
AcDbLine
 10
187.0
 20
110.0
 30
0.0
 11
260.0
 21
110.0
 31
0.0
  0
LINE
  5
1C2
330
544
100
AcDbEntity
  8
0
100
AcDbLine
 10
187.0
 20
100.0
 30
0.0
 11
260.0
 21
100.0
 31
0.0
  0
LINE
  5
1AD
330
544
100
AcDbEntity
  8
0
100
AcDbLine
 10
170.0
 20
90.0
 30
0.0
 11
260.0
 21
90.0
 31
0.0
  0
LINE
  5
1AE
330
544
100
AcDbEntity
  8
0
100
AcDbLine
 10
170.0
 20
110.0
 30
0.0
 11
170.0
 21
90.0
 31
0.0
  0
MTEXT
  5
1C3
330
544
100
AcDbEntity
  8
0
100
AcDbMText
 10
190.0
 20
117.0000000000003
 30
0.0
 40
2.0
 41
0.0
 46
0.0
 71
     1
 72
     1
  1
(1-15)\P1-6
  7
textstyle84
 73
     1
 44
1.0
  0
MTEXT
  5
526
330
544
100
AcDbEntity
  8
0
100
AcDbMText
 10
190.0
 20
97.00000000000031
 30
0.0
 40
2.0
 41
0.0
 46
0.0
 71
     1
 72
     1
  1
(1-13)\P1-8
  7
textstyle85
 73
     1
 44
1.0
  0
MTEXT
  5
1C4
330
544
100
AcDbEntity
  8
0
100
AcDbMText
 10
190.0
 20
106.9999999999998
 30
0.0
 40
2.0
 41
0.0
 46
0.0
 71
     1
 72
     1
  1
(1-14)\P1-7
  7
textstyle86
 73
     1
 44
1.0
  0
LINE
  5
1D1
330
544
100
AcDbEntity
  8
0
100
AcDbLine
 10
260.0
 20
40.0
 30
0.0
 11
220.0
 21
40.0
 31
0.0
  0
LINE
  5
1D9
330
544
100
AcDbEntity
  8
0
100
AcDbLine
 10
220.0
 20
40.0
 30
0.0
 11
220.0
 21
37.0
 31
0.0
  0
LINE
  5
1DA
330
544
100
AcDbEntity
  8
0
100
AcDbLine
 10
220.0
 20
32.0
 30
0.0
 11
220.0
 21
30.0
 31
0.0
  0
LINE
  5
1D3
330
544
100
AcDbEntity
  8
0
100
AcDbLine
 10
190.0
 20
30.0
 30
0.0
 11
260.0
 21
30.0
 31
0.0
  0
LINE
  5
1D4
330
544
100
AcDbEntity
  8
0
100
AcDbLine
 10
220.0
 20
37.0
 30
0.0
 11
217.0
 21
35.0
 31
0.0
  0
LINE
  5
1D5
330
544
100
AcDbEntity
  8
0
100
AcDbLine
 10
217.0
 20
35.0
 30
0.0
 11
217.0
 21
34.0
 31
0.0
  0
LINE
  5
1D6
330
544
100
AcDbEntity
  8
0
100
AcDbLine
 10
217.0
 20
34.0
 30
0.0
 11
220.0
 21
32.0
 31
0.0
  0
LINE
  5
1D7
330
544
100
AcDbEntity
  8
0
100
AcDbLine
 10
217.0
 20
37.0
 30
0.0
 11
217.0
 21
32.0
 31
0.0
  0
LINE
  5
1D8
330
544
100
AcDbEntity
  8
0
100
AcDbLine
 10
217.0
 20
34.5
 30
0.0
 11
213.0
 21
34.5
 31
0.0
  0
LINE
  5
1E1
330
544
100
AcDbEntity
  8
0
100
AcDbLine
 10
250.0
 20
40.0
 30
0.0
 11
250.0
 21
37.0
 31
0.0
  0
LINE
  5
22C
330
544
100
AcDbEntity
  8
0
100
AcDbLine
 10
260.0
 20
155.0
 30
0.0
 11
260.0
 21
152.0
 31
0.0
  0
LINE
  5
1E2
330
544
100
AcDbEntity
  8
0
100
AcDbLine
 10
250.0
 20
33.0
 30
0.0
 11
250.0
 21
30.0
 31
0.0
  0
LINE
  5
22D
330
544
100
AcDbEntity
  8
0
100
AcDbLine
 10
260.0
 20
148.0
 30
0.0
 11
260.0
 21
145.0
 31
0.0
  0
LINE
  5
1E3
330
544
100
AcDbEntity
  8
0
100
AcDbLine
 10
250.0
 20
30.0
 30
0.0
 11
249.5
 21
31.0
 31
0.0
  0
LINE
  5
22E
330
544
100
AcDbEntity
  8
0
100
AcDbLine
 10
260.0
 20
145.0
 30
0.0
 11
259.5
 21
146.0
 31
0.0
  0
LINE
  5
1E4
330
544
100
AcDbEntity
  8
0
100
AcDbLine
 10
249.5
 20
31.0
 30
0.0
 11
250.5
 21
31.0
 31
0.0
  0
LINE
  5
22F
330
544
100
AcDbEntity
  8
0
100
AcDbLine
 10
259.5
 20
146.0
 30
0.0
 11
260.5
 21
146.0
 31
0.0
  0
LINE
  5
1E5
330
544
100
AcDbEntity
  8
0
100
AcDbLine
 10
250.5
 20
31.0
 30
0.0
 11
250.0
 21
30.0
 31
0.0
  0
LINE
  5
230
330
544
100
AcDbEntity
  8
0
100
AcDbLine
 10
260.5
 20
146.0
 30
0.0
 11
260.0
 21
145.0
 31
0.0
  0
LINE
  5
1E6
330
544
100
AcDbEntity
  8
0
100
AcDbLine
 10
250.0
 20
40.0
 30
0.0
 11
249.5
 21
39.0
 31
0.0
  0
LINE
  5
231
330
544
100
AcDbEntity
  8
0
100
AcDbLine
 10
260.0
 20
155.0
 30
0.0
 11
259.5
 21
154.0
 31
0.0
  0
LINE
  5
1E7
330
544
100
AcDbEntity
  8
0
100
AcDbLine
 10
249.5
 20
39.0
 30
0.0
 11
250.5
 21
39.0
 31
0.0
  0
LINE
  5
232
330
544
100
AcDbEntity
  8
0
100
AcDbLine
 10
259.5
 20
154.0
 30
0.0
 11
260.5
 21
154.0
 31
0.0
  0
LINE
  5
1E8
330
544
100
AcDbEntity
  8
0
100
AcDbLine
 10
250.5
 20
39.0
 30
0.0
 11
250.0
 21
40.0
 31
0.0
  0
LINE
  5
233
330
544
100
AcDbEntity
  8
0
100
AcDbLine
 10
260.5
 20
154.0
 30
0.0
 11
260.0
 21
155.0
 31
0.0
  0
MTEXT
  5
1E9
330
544
100
AcDbEntity
  8
0
100
AcDbMText
 10
250.0
 20
34.99999999999992
 30
0.0
 40
2.0
 41
0.0
 46
0.0
 71
     5
 72
     1
  1
P
  7
textstyle87
 73
     1
 44
1.0
  0
MTEXT
  5
234
330
544
100
AcDbEntity
  8
0
100
AcDbMText
 10
260.0
 20
149.9999999999999
 30
0.0
 40
2.0
 41
0.0
 46
0.0
 71
     5
 72
     1
  1
P
  7
textstyle88
 73
     1
 44
1.0
  0
MTEXT
  5
1EA
330
544
100
AcDbEntity
  8
0
100
AcDbMText
 10
266.0
 20
39.99999999999994
 30
0.0
 40
2.0
 41
0.0
 46
0.0
 71
     4
 72
     1
  1
TG ONX
  7
textstyle89
 73
     1
 44
1.0
  0
MTEXT
  5
235
330
544
100
AcDbEntity
  8
0
100
AcDbMText
 10
266.0
 20
156.0
 30
0.0
 40
2.0
 41
0.0
 46
0.0
 71
     8
 72
     1
  1
BTX
  7
textstyle90
 73
     1
 44
1.0
  0
MTEXT
  5
238
330
544
100
AcDbEntity
  8
0
100
AcDbMText
 10
266.0
 20
146.0
 30
0.0
 40
2.0
 41
0.0
 46
0.0
 71
     8
 72
     1
  1
ATX
  7
textstyle91
 73
     1
 44
1.0
  0
MTEXT
  5
1EB
330
544
100
AcDbEntity
  8
0
100
AcDbMText
 10
266.0
 20
30.00000000000023
 30
0.0
 40
2.0
 41
0.0
 46
0.0
 71
     4
 72
     1
  1
0V
  7
textstyle92
 73
     1
 44
1.0
  0
LINE
  5
1EC
330
544
100
AcDbEntity
  8
0
100
AcDbLine
 10
266.0
 20
42.0
 30
0.0
 11
276.0
 21
42.0
 31
0.0
  0
MTEXT
  5
1ED
330
544
100
AcDbEntity
  8
0
100
AcDbMText
 10
236.9999999999999
 20
38.99999999999995
 30
0.0
 40
2.0
 41
0.0
 46
0.0
 71
     3
 72
     1
  1
1-3
  7
textstyle93
 73
     1
 44
1.0
  0
MTEXT
  5
1EE
330
544
100
AcDbEntity
  8
0
100
AcDbMText
 10
236.9999999999999
 20
28.99999999999968
 30
0.0
 40
2.0
 41
0.0
 46
0.0
 71
     3
 72
     1
  1
1-18
  7
textstyle94
 73
     1
 44
1.0
  0
LINE
  5
1EF
330
544
100
AcDbEntity
  8
0
100
AcDbLine
 10
240.0
 20
164.0
 30
0.0
 11
310.0
 21
164.0
 31
0.0
  0
LINE
  5
1F0
330
544
100
AcDbEntity
  8
0
100
AcDbLine
 10
240.0
 20
200.0
 30
0.0
 11
310.0
 21
200.0
 31
0.0
  0
LINE
  5
1FA
330
544
100
AcDbEntity
  8
0
100
AcDbLine
 10
310.0
 20
200.0
 30
0.0
 11
310.0
 21
197.0
 31
0.0
  0
LINE
  5
1FD
330
544
100
AcDbEntity
  8
0
100
AcDbLine
 10
310.0
 20
167.0
 30
0.0
 11
310.0
 21
164.0
 31
0.0
  0
CIRCLE
  5
1F3
330
544
100
AcDbEntity
  8
0
100
AcDbCircle
 10
310.0
 20
182.0
 30
0.0
 40
13.0
  0
LINE
  5
1F4
330
544
100
AcDbEntity
  8
0
100
AcDbLine
 10
306.0
 20
197.0
 30
0.0
 11
314.0
 21
197.0
 31
0.0
  0
LINE
  5
1F5
330
544
100
AcDbEntity
  8
0
100
AcDbLine
 10
314.0
 20
197.0
 30
0.0
 11
314.0
 21
194.369316876853
 31
0.0
  0
LINE
  5
1F6
330
544
100
AcDbEntity
  8
0
100
AcDbLine
 10
306.0
 20
197.0
 30
0.0
 11
306.0
 21
194.369316876853
 31
0.0
  0
LINE
  5
1F7
330
544
100
AcDbEntity
  8
0
100
AcDbLine
 10
306.0
 20
169.630683123147
 30
0.0
 11
306.0
 21
167.0
 31
0.0
  0
LINE
  5
1F8
330
544
100
AcDbEntity
  8
0
100
AcDbLine
 10
306.0
 20
167.0
 30
0.0
 11
314.0
 21
167.0
 31
0.0
  0
LINE
  5
1F9
330
544
100
AcDbEntity
  8
0
100
AcDbLine
 10
314.0
 20
167.0
 30
0.0
 11
314.0
 21
169.630683123147
 31
0.0
  0
LINE
  5
211
330
544
100
AcDbEntity
  8
0
100
AcDbLine
 10
240.0
 20
155.0
 30
0.0
 11
310.0
 21
155.0
 31
0.0
  0
LINE
  5
213
330
544
100
AcDbEntity
  8
0
100
AcDbLine
 10
240.0
 20
145.0
 30
0.0
 11
310.0
 21
145.0
 31
0.0
  0
LINE
  5
20A
330
544
100
AcDbEntity
  8
0
100
AcDbLine
 10
310.0
 20
153.0
 30
0.0
 11
310.0
 21
155.0
 31
0.0
  0
LINE
  5
20B
330
544
100
AcDbEntity
  8
0
100
AcDbLine
 10
310.0
 20
145.0
 30
0.0
 11
310.0
 21
147.0
 31
0.0
  0
CIRCLE
  5
202
330
544
100
AcDbEntity
  8
0
100
AcDbCircle
 10
310.0
 20
150.0
 30
0.0
 40
2.5
  0
LINE
  5
203
330
544
100
AcDbEntity
  8
0
100
AcDbLine
 10
309.0
 20
152.3
 30
0.0
 11
309.0
 21
153.0
 31
0.0
  0
LINE
  5
204
330
544
100
AcDbEntity
  8
0
100
AcDbLine
 10
309.0
 20
153.0
 30
0.0
 11
311.0
 21
153.0
 31
0.0
  0
LINE
  5
205
330
544
100
AcDbEntity
  8
0
100
AcDbLine
 10
311.0
 20
153.0
 30
0.0
 11
311.0
 21
152.3
 31
0.0
  0
LINE
  5
206
330
544
100
AcDbEntity
  8
0
100
AcDbLine
 10
309.0
 20
147.7
 30
0.0
 11
309.0
 21
147.0
 31
0.0
  0
LINE
  5
207
330
544
100
AcDbEntity
  8
0
100
AcDbLine
 10
309.0
 20
147.0
 30
0.0
 11
311.0
 21
147.0
 31
0.0
  0
LINE
  5
208
330
544
100
AcDbEntity
  8
0
100
AcDbLine
 10
311.0
 20
147.0
 30
0.0
 11
311.0
 21
147.7
 31
0.0
  0
LINE
  5
20D
330
544
100
AcDbEntity
  8
0
100
AcDbLine
 10
310.0
 20
182.0
 30
0.0
 11
335.0
 21
165.0
 31
0.0
  0
LINE
  5
20E
330
544
100
AcDbEntity
  8
0
100
AcDbLine
 10
310.0
 20
150.0
 30
0.0
 11
335.0
 21
147.0
 31
0.0
  0
LINE
  5
20F
330
544
100
AcDbEntity
  8
0
100
AcDbLine
 10
335.0
 20
165.0
 30
0.0
 11
335.0
 21
110.0
 31
0.0
  0
MTEXT
  5
220
330
544
100
AcDbEntity
  8
0
100
AcDbMText
 10
315.0
 20
199.9999999999998
 30
0.0
 40
2.0
 41
0.0
 46
0.0
 71
     4
 72
     1
  1
A (A2)
  7
textstyle95
 73
     1
 44
1.0
  0
MTEXT
  5
221
330
544
100
AcDbEntity
  8
0
100
AcDbMText
 10
315.0
 20
164.0000000000002
 30
0.0
 40
2.0
 41
0.0
 46
0.0
 71
     4
 72
     1
  1
B (A1)
  7
textstyle96
 73
     1
 44
1.0
  0
MTEXT
  5
222
330
544
100
AcDbEntity
  8
0
100
AcDbMText
 10
315.0
 20
154.9999999999998
 30
0.0
 40
2.0
 41
0.0
 46
0.0
 71
     4
 72
     1
  1
B(-)
  7
textstyle97
 73
     1
 44
1.0
  0
MTEXT
  5
223
330
544
100
AcDbEntity
  8
0
100
AcDbMText
 10
315.0
 20
144.9999999999999
 30
0.0
 40
2.0
 41
0.0
 46
0.0
 71
     4
 72
     1
  1
A(+)
  7
textstyle98
 73
     1
 44
1.0
  0
MTEXT
  5
22A
330
544
100
AcDbEntity
  8
0
100
AcDbMText
 10
300.0
 20
153.0000000000003
 30
0.0
 40
2.0
 41
0.0
 46
0.0
 71
     2
 72
     1
  1
H
  7
textstyle99
 73
     1
 44
1.0
  0
MTEXT
  5
22B
330
544
100
AcDbEntity
  8
0
100
AcDbMText
 10
300.0
 20
143.0000000000001
 30
0.0
 40
2.0
 41
0.0
 46
0.0
 71
     2
 72
     1
  1
G
  7
textstyle100
 73
     1
 44
1.0
  0
LINE
  5
239
330
544
100
AcDbEntity
  8
0
100
AcDbLine
 10
160.0
 20
199.5
 30
0.0
 11
175.5
 21
199.5
 31
0.0
  0
LINE
  5
259
330
544
100
AcDbEntity
  8
0
100
AcDbLine
 10
200.0
 20
199.5
 30
0.0
 11
215.5
 21
199.5
 31
0.0
  0
LINE
  5
23A
330
544
100
AcDbEntity
  8
0
100
AcDbLine
 10
175.5
 20
199.5
 30
0.0
 11
175.5
 21
195.5
 31
0.0
  0
LINE
  5
25A
330
544
100
AcDbEntity
  8
0
100
AcDbLine
 10
215.5
 20
199.5
 30
0.0
 11
215.5
 21
195.5
 31
0.0
  0
LINE
  5
23B
330
544
100
AcDbEntity
  8
0
100
AcDbLine
 10
175.5
 20
195.5
 30
0.0
 11
160.0
 21
195.5
 31
0.0
  0
LINE
  5
25B
330
544
100
AcDbEntity
  8
0
100
AcDbLine
 10
215.5
 20
195.5
 30
0.0
 11
200.0
 21
195.5
 31
0.0
  0
LINE
  5
23C
330
544
100
AcDbEntity
  8
0
100
AcDbLine
 10
160.0
 20
195.5
 30
0.0
 11
160.0
 21
199.5
 31
0.0
  0
LINE
  5
25C
330
544
100
AcDbEntity
  8
0
100
AcDbLine
 10
200.0
 20
195.5
 30
0.0
 11
200.0
 21
199.5
 31
0.0
  0
CIRCLE
  5
23D
330
544
100
AcDbEntity
  8
0
100
AcDbCircle
 10
161.0
 20
198.5
 30
0.0
 40
0.5
  0
CIRCLE
  5
23E
330
544
100
AcDbEntity
  8
0
100
AcDbCircle
 10
161.0
 20
196.5
 30
0.0
 40
0.5
  0
CIRCLE
  5
23F
330
544
100
AcDbEntity
  8
0
100
AcDbCircle
 10
162.5
 20
198.5
 30
0.0
 40
0.5
  0
CIRCLE
  5
240
330
544
100
AcDbEntity
  8
0
100
AcDbCircle
 10
162.5
 20
196.5
 30
0.0
 40
0.5
  0
CIRCLE
  5
241
330
544
100
AcDbEntity
  8
0
100
AcDbCircle
 10
164.0
 20
198.4999999999999
 30
0.0
 40
0.5
  0
CIRCLE
  5
242
330
544
100
AcDbEntity
  8
0
100
AcDbCircle
 10
164.0
 20
196.4999999999999
 30
0.0
 40
0.5
  0
CIRCLE
  5
243
330
544
100
AcDbEntity
  8
0
100
AcDbCircle
 10
165.4999999999999
 20
198.4999999999999
 30
0.0
 40
0.5
  0
CIRCLE
  5
244
330
544
100
AcDbEntity
  8
0
100
AcDbCircle
 10
165.4999999999999
 20
196.4999999999999
 30
0.0
 40
0.5
  0
CIRCLE
  5
245
330
544
100
AcDbEntity
  8
0
100
AcDbCircle
 10
166.9999999999999
 20
198.4999999999999
 30
0.0
 40
0.5
  0
CIRCLE
  5
246
330
544
100
AcDbEntity
  8
0
100
AcDbCircle
 10
166.9999999999999
 20
196.4999999999999
 30
0.0
 40
0.5
  0
CIRCLE
  5
247
330
544
100
AcDbEntity
  8
0
100
AcDbCircle
 10
168.4999999999999
 20
198.4999999999999
 30
0.0
 40
0.5
  0
CIRCLE
  5
248
330
544
100
AcDbEntity
  8
0
100
AcDbCircle
 10
168.4999999999999
 20
196.4999999999999
 30
0.0
 40
0.5
  0
CIRCLE
  5
249
330
544
100
AcDbEntity
  8
0
100
AcDbCircle
 10
169.9999999999999
 20
198.4999999999999
 30
0.0
 40
0.5
  0
CIRCLE
  5
24A
330
544
100
AcDbEntity
  8
0
100
AcDbCircle
 10
169.9999999999999
 20
196.4999999999999
 30
0.0
 40
0.5
  0
CIRCLE
  5
24B
330
544
100
AcDbEntity
  8
0
100
AcDbCircle
 10
171.4999999999999
 20
198.4999999999999
 30
0.0
 40
0.5
  0
CIRCLE
  5
24C
330
544
100
AcDbEntity
  8
0
100
AcDbCircle
 10
171.4999999999999
 20
196.4999999999999
 30
0.0
 40
0.5
  0
CIRCLE
  5
24D
330
544
100
AcDbEntity
  8
0
100
AcDbCircle
 10
172.9999999999999
 20
198.4999999999999
 30
0.0
 40
0.5
  0
CIRCLE
  5
24E
330
544
100
AcDbEntity
  8
0
100
AcDbCircle
 10
172.9999999999999
 20
196.4999999999999
 30
0.0
 40
0.5
  0
CIRCLE
  5
24F
330
544
100
AcDbEntity
  8
0
100
AcDbCircle
 10
174.4999999999999
 20
198.4999999999999
 30
0.0
 40
0.5
  0
CIRCLE
  5
250
330
544
100
AcDbEntity
  8
0
100
AcDbCircle
 10
174.4999999999999
 20
196.4999999999999
 30
0.0
 40
0.5
  0
CIRCLE
  5
25D
330
544
100
AcDbEntity
  8
0
100
AcDbCircle
 10
201.0
 20
198.5
 30
0.0
 40
0.5
  0
CIRCLE
  5
25E
330
544
100
AcDbEntity
  8
0
100
AcDbCircle
 10
201.0
 20
196.5
 30
0.0
 40
0.5
  0
CIRCLE
  5
25F
330
544
100
AcDbEntity
  8
0
100
AcDbCircle
 10
202.5
 20
198.5
 30
0.0
 40
0.5
  0
CIRCLE
  5
260
330
544
100
AcDbEntity
  8
0
100
AcDbCircle
 10
202.5
 20
196.5
 30
0.0
 40
0.5
  0
CIRCLE
  5
261
330
544
100
AcDbEntity
  8
0
100
AcDbCircle
 10
203.9999999999999
 20
198.4999999999999
 30
0.0
 40
0.5
  0
CIRCLE
  5
262
330
544
100
AcDbEntity
  8
0
100
AcDbCircle
 10
203.9999999999999
 20
196.4999999999999
 30
0.0
 40
0.5
  0
CIRCLE
  5
263
330
544
100
AcDbEntity
  8
0
100
AcDbCircle
 10
205.4999999999999
 20
198.4999999999999
 30
0.0
 40
0.5
  0
CIRCLE
  5
264
330
544
100
AcDbEntity
  8
0
100
AcDbCircle
 10
205.4999999999999
 20
196.4999999999999
 30
0.0
 40
0.5
  0
CIRCLE
  5
265
330
544
100
AcDbEntity
  8
0
100
AcDbCircle
 10
206.9999999999999
 20
198.4999999999999
 30
0.0
 40
0.5
  0
CIRCLE
  5
266
330
544
100
AcDbEntity
  8
0
100
AcDbCircle
 10
206.9999999999999
 20
196.4999999999999
 30
0.0
 40
0.5
  0
CIRCLE
  5
267
330
544
100
AcDbEntity
  8
0
100
AcDbCircle
 10
208.4999999999999
 20
198.4999999999999
 30
0.0
 40
0.5
  0
CIRCLE
  5
268
330
544
100
AcDbEntity
  8
0
100
AcDbCircle
 10
208.4999999999999
 20
196.4999999999999
 30
0.0
 40
0.5
  0
CIRCLE
  5
269
330
544
100
AcDbEntity
  8
0
100
AcDbCircle
 10
209.9999999999999
 20
198.4999999999999
 30
0.0
 40
0.5
  0
CIRCLE
  5
26A
330
544
100
AcDbEntity
  8
0
100
AcDbCircle
 10
209.9999999999999
 20
196.4999999999999
 30
0.0
 40
0.5
  0
CIRCLE
  5
26B
330
544
100
AcDbEntity
  8
0
100
AcDbCircle
 10
211.4999999999999
 20
198.4999999999999
 30
0.0
 40
0.5
  0
CIRCLE
  5
26C
330
544
100
AcDbEntity
  8
0
100
AcDbCircle
 10
211.4999999999999
 20
196.4999999999999
 30
0.0
 40
0.5
  0
CIRCLE
  5
26D
330
544
100
AcDbEntity
  8
0
100
AcDbCircle
 10
212.9999999999999
 20
198.4999999999999
 30
0.0
 40
0.5
  0
CIRCLE
  5
26E
330
544
100
AcDbEntity
  8
0
100
AcDbCircle
 10
212.9999999999999
 20
196.4999999999999
 30
0.0
 40
0.5
  0
CIRCLE
  5
26F
330
544
100
AcDbEntity
  8
0
100
AcDbCircle
 10
214.4999999999999
 20
198.4999999999999
 30
0.0
 40
0.5
  0
CIRCLE
  5
270
330
544
100
AcDbEntity
  8
0
100
AcDbCircle
 10
214.4999999999999
 20
196.4999999999999
 30
0.0
 40
0.5
  0
MTEXT
  5
251
330
544
100
AcDbEntity
  8
0
100
AcDbMText
 10
161.0
 20
200.0
 30
0.0
 40
2.0
 41
0.0
 46
0.0
 71
     8
 72
     1
  1
1
  7
textstyle101
 73
     1
 44
1.0
  0
MTEXT
  5
253
330
544
100
AcDbEntity
  8
0
100
AcDbMText
 10
174.4999999999999
 20
199.9999999999999
 30
0.0
 40
2.0
 41
0.0
 46
0.0
 71
     8
 72
     1
  1
10
  7
textstyle102
 73
     1
 44
1.0
  0
MTEXT
  5
254
330
544
100
AcDbEntity
  8
0
100
AcDbMText
 10
161.0
 20
195.0
 30
0.0
 40
2.0
 41
0.0
 46
0.0
 71
     2
 72
     1
  1
20
  7
textstyle103
 73
     1
 44
1.0
  0
MTEXT
  5
255
330
544
100
AcDbEntity
  8
0
100
AcDbMText
 10
174.5
 20
195.0
 30
0.0
 40
2.0
 41
0.0
 46
0.0
 71
     2
 72
     1
  1
11
  7
textstyle104
 73
     1
 44
1.0
  0
MTEXT
  5
256
330
544
100
AcDbEntity
  8
0
100
AcDbMText
 10
167.75
 20
195.0
 30
0.0
 40
2.0
 41
0.0
 46
0.0
 71
     2
 72
     1
  1
1CN
  7
textstyle105
 73
     1
 44
1.0
  0
MTEXT
  5
271
330
544
100
AcDbEntity
  8
0
100
AcDbMText
 10
201.0
 20
200.0
 30
0.0
 40
2.0
 41
0.0
 46
0.0
 71
     8
 72
     1
  1
1
  7
textstyle106
 73
     1
 44
1.0
  0
MTEXT
  5
272
330
544
100
AcDbEntity
  8
0
100
AcDbMText
 10
214.4999999999999
 20
199.9999999999999
 30
0.0
 40
2.0
 41
0.0
 46
0.0
 71
     8
 72
     1
  1
10
  7
textstyle107
 73
     1
 44
1.0
  0
MTEXT
  5
273
330
544
100
AcDbEntity
  8
0
100
AcDbMText
 10
201.0
 20
194.9999999999999
 30
0.0
 40
2.0
 41
0.0
 46
0.0
 71
     2
 72
     1
  1
20
  7
textstyle108
 73
     1
 44
1.0
  0
MTEXT
  5
274
330
544
100
AcDbEntity
  8
0
100
AcDbMText
 10
214.5
 20
195.0000000000001
 30
0.0
 40
2.0
 41
0.0
 46
0.0
 71
     2
 72
     1
  1
11
  7
textstyle109
 73
     1
 44
1.0
  0
MTEXT
  5
275
330
544
100
AcDbEntity
  8
0
100
AcDbMText
 10
207.75
 20
195.0
 30
0.0
 40
2.0
 41
0.0
 46
0.0
 71
     2
 72
     1
  1
2CN
  7
textstyle110
 73
     1
 44
1.0
  0
MTEXT
  5
277
330
544
100
AcDbEntity
  8
0
100
AcDbMText
 10
90.00000000000001
 20
220.0
 30
0.0
 40
3.0
 41
0.0
 46
0.0
 71
     7
 72
     1
  3
NOTES: \P\P1) Many thanks to Mr. Sato for kindly providing the original drawing.\P\P2) The original drawing is the reference that you want to use should you find a difference between it and this drawing.\PAnd you will, this drawing is just for my cas
  3
e, yours will certainly be different.\P\P3) If you take nothing else away from this drawing, please check out 1CN and 2CN for pin assignments.\P\P4) The JAE connectors are labeled 1 - 10 on the top, and 1 - 10 on the bottom. Bless their hearts... See
  1
 note 3.\P\P5) Copyleft 2020 John Waalkes. Have at it. Use at your own risk.
  7
textstyle111
 73
     1
 44
1.0
  0
MTEXT
  5
285
330
544
100
AcDbEntity
  8
0
100
AcDbMText
 10
168.0
 20
207.0
 30
0.0
 40
2.0
 41
0.0
 46
0.0
 71
     2
 72
     1
  1
SEE NOTES.
  7
textstyle112
 73
     1
 44
1.0
  0
MTEXT
  5
286
330
544
100
AcDbEntity
  8
0
100
AcDbMText
 10
208.0
 20
207.0
 30
0.0
 40
2.0
 41
0.0
 46
0.0
 71
     2
 72
     1
  1
SEE NOTES.
  7
textstyle113
 73
     1
 44
1.0
  0
LINE
  5
362
330
544
100
AcDbEntity
  8
0
100
AcDbLine
 10
0.0
 20
0.0
 30
0.0
 11
0.0
 21
279.4
 31
0.0
  0
LINE
  5
365
330
544
100
AcDbEntity
  8
0
100
AcDbLine
 10
431.8
 20
0.0
 30
0.0
 11
0.0
 21
0.0
 31
0.0
  0
LINE
  5
36A
330
544
100
AcDbEntity
  8
0
100
AcDbLine
 10
431.8
 20
0.0
 30
0.0
 11
431.8
 21
279.4
 31
0.0
  0
LINE
  5
369
330
544
100
AcDbEntity
  8
0
100
AcDbLine
 10
0.0
 20
279.4
 30
0.0
 11
431.8
 21
279.4
 31
0.0
  0
VIEWPORT
  5
608
330
540
100
AcDbEntity
 67
     1
  8
0
 62
    18
420
  4980736
100
AcDbViewport
 10
128.5
 20
97.5
 30
0.0
 40
314.226
 41
222.18
 68
     1
 69
     1
 12
128.5
 22
97.5
 13
0.0
 23
0.0
 14
10.0
 24
10.0
 15
10.0
 25
10.0
 16
0.0
 26
0.0
 36
1.0
 17
0.0
 27
0.0
 37
0.0
 42
50.0
 43
0.0
 44
0.0
 45
222.18
 50
0.0
 51
0.0
 72
   100
 90
   557152
  1

281
     0
 71
     1
 74
     0
110
0.0
120
0.0
130
0.0
111
1.0
121
0.0
131
0.0
112
0.0
122
1.0
132
0.0
 79
     0
146
0.0
170
     0
 61
     5
348
554
292
     1
282
     1
141
0.0
142
0.0
 63
   256
361
609
  0
ENDSEC
  0
SECTION
  2
OBJECTS
  0
DICTIONARY
  5
532
330
0
100
AcDbDictionary
281
     1
  3
ACAD_DETAILVIEWSTYLE
350
678
  3
ACAD_GROUP
350
533
  3
ACAD_LAYOUT
350
53F
  3
ACAD_MATERIAL
350
568
  3
ACAD_MLEADERSTYLE
350
590
  3
ACAD_MLINESTYLE
350
53C
  3
ACAD_PLOTSETTINGS
350
53E
  3
ACAD_PLOTSTYLENAME
350
534
  3
ACAD_SCALELIST
350
56C
  3
ACAD_SECTIONVIEWSTYLE
350
679
  3
ACAD_TABLESTYLE
350
58E
  3
ACAD_VISUALSTYLE
350
54F
  3
ACDB_RECOMPOSE_DATA
350
675
  3
AcDbVariableDictionary
350
671
  3
QCAD_OBJECTS
350
594
  0
SUN
  5
592
330
54E
100
AcDbSun
 90
        1
290
     0
 63
     7
421
 16777215
 40
1.0
291
     1
 91
  2455826
 92
 54000000
292
     0
 70
     2
 71
   256
280
     1
  0
SUN
  5
609
330
608
100
AcDbSun
 90
        1
290
     0
 63
     7
421
 16777215
 40
1.0
291
     1
 91
  2455826
 92
 54000000
292
     0
 70
     2
 71
   256
280
     1
  0
DICTIONARY
  5
678
102
{ACAD_REACTORS
330
532
102
}
330
532
100
AcDbDictionary
281
     1
  0
DICTIONARY
  5
533
102
{ACAD_REACTORS
330
532
102
}
330
532
100
AcDbDictionary
281
     1
  0
DICTIONARY
  5
53F
102
{ACAD_REACTORS
330
532
102
}
330
532
100
AcDbDictionary
281
     1
  3
Layout1
350
543
  3
Model
350
547
  0
DICTIONARY
  5
568
102
{ACAD_REACTORS
330
532
102
}
330
532
100
AcDbDictionary
281
     1
  3
ByBlock
350
56A
  3
ByLayer
350
569
  3
Global
350
56B
  0
DICTIONARY
  5
590
102
{ACAD_REACTORS
330
532
102
}
330
532
100
AcDbDictionary
281
     1
  3
Standard
350
591
  0
DICTIONARY
  5
53C
102
{ACAD_REACTORS
330
532
102
}
330
532
100
AcDbDictionary
281
     1
  3
Standard
350
53D
  0
DICTIONARY
  5
53E
102
{ACAD_REACTORS
330
532
102
}
330
532
100
AcDbDictionary
281
     1
  0
ACDBDICTIONARYWDFLT
  5
534
102
{ACAD_REACTORS
330
532
102
}
330
532
100
AcDbDictionary
281
     1
  3
Normal
350
535
100
AcDbDictionaryWithDefault
340
535
  0
DICTIONARY
  5
56C
102
{ACAD_REACTORS
330
532
102
}
330
532
100
AcDbDictionary
281
     1
  3
A0
350
56D
  3
A1
350
56E
  3
A2
350
56F
  3
A3
350
570
  3
A4
350
571
  3
A5
350
572
  3
A6
350
573
  3
A7
350
574
  3
A8
350
575
  3
A9
350
576
  3
B0
350
577
  3
B1
350
578
  3
B2
350
579
  3
B3
350
57A
  3
B4
350
57B
  3
B5
350
57C
  3
B6
350
57D
  3
B7
350
57E
  3
B8
350
57F
  3
B9
350
580
  3
C0
350
581
  3
C1
350
582
  3
C2
350
583
  3
C3
350
584
  3
C4
350
585
  3
C5
350
586
  3
C6
350
587
  3
C7
350
588
  3
C8
350
589
  3
C9
350
58A
  3
D0
350
58B
  3
D1
350
58C
  3
D2
350
58D
  0
DICTIONARY
  5
679
102
{ACAD_REACTORS
330
532
102
}
330
532
100
AcDbDictionary
281
     1
  0
DICTIONARY
  5
58E
102
{ACAD_REACTORS
330
532
102
}
330
532
100
AcDbDictionary
281
     1
  3
Standard
350
58F
  0
DICTIONARY
  5
54F
102
{ACAD_REACTORS
330
532
102
}
330
532
100
AcDbDictionary
281
     1
  3
2dWireframe
350
554
  3
Basic
350
557
  3
Brighten
350
55B
  3
ColorChange
350
55F
  3
Conceptual
350
559
  3
Dim
350
55A
  3
EdgeColorOff
350
562
  3
Facepattern
350
55E
  3
Flat
350
550
  3
FlatWithEdges
350
551
  3
Gouraud
350
552
  3
GouraudWithEdges
350
553
  3
Hidden
350
556
  3
JitterOff
350
560
  3
Linepattern
350
55D
  3
OverhangOff
350
561
  3
Realistic
350
558
  3
Shaded
350
567
  3
Shaded with edges
350
566
  3
Shades of Gray
350
563
  3
Sketchy
350
564
  3
Thicken
350
55C
  3
Wireframe
350
555
  3
X-Ray
350
565
  0
XRECORD
  5
675
102
{ACAD_REACTORS
330
532
102
}
330
532
100
AcDbXrecord
280
     1
 90
        1
330
58F
  0
DICTIONARY
  5
671
102
{ACAD_REACTORS
330
532
102
}
330
532
100
AcDbDictionary
281
     1
  3
CANNOSCALE
350
672
  3
CMLEADERSTYLE
350
677
  3
CTABLESTYLE
350
676
  0
DICTIONARY
  5
594
102
{ACAD_REACTORS
330
532
102
}
330
532
100
AcDbDictionary
281
     1
  3
ColorSettings/BackgroundColor
350
596
  3
ColorSettings/ColorMode
350
597
  3
Grid/DisplayGrid00
350
598
  3
Grid/DisplayGrid01
350
599
  3
Grid/DisplayGrid02
350
59A
  3
Grid/DisplayGrid03
350
59B
  3
Grid/GridSpacingX00
350
59C
  3
Grid/GridSpacingX01
350
59D
  3
Grid/GridSpacingX02
350
59E
  3
Grid/GridSpacingX03
350
59F
  3
Grid/GridSpacingY00
350
5A0
  3
Grid/GridSpacingY01
350
5A1
  3
Grid/GridSpacingY02
350
5A2
  3
Grid/GridSpacingY03
350
5A3
  3
Grid/IsometricGrid00
350
5A4
  3
Grid/IsometricGrid01
350
5A5
  3
Grid/IsometricGrid02
350
5A6
  3
Grid/IsometricGrid03
350
5A7
  3
Grid/IsometricProjection00
350
5A8
  3
Grid/IsometricProjection01
350
5A9
  3
Grid/IsometricProjection02
350
5AA
  3
Grid/IsometricProjection03
350
5AB
  3
Grid/MetaGridSpacingX00
350
5AC
  3
Grid/MetaGridSpacingX01
350
5AD
  3
Grid/MetaGridSpacingX02
350
5AE
  3
Grid/MetaGridSpacingX03
350
5AF
  3
Grid/MetaGridSpacingY00
350
5B0
  3
Grid/MetaGridSpacingY01
350
5B1
  3
Grid/MetaGridSpacingY02
350
5B2
  3
Grid/MetaGridSpacingY03
350
5B3
  3
MultiPageSettings/Columns
350
5B4
  3
MultiPageSettings/GlueMarginsBottom
350
5B5
  3
MultiPageSettings/GlueMarginsLeft
350
5B6
  3
MultiPageSettings/GlueMarginsRight
350
5B7
  3
MultiPageSettings/GlueMarginsTop
350
5B8
  3
MultiPageSettings/PrintCropMarks
350
5B9
  3
MultiPageSettings/Rows
350
5BA
  3
PageSettings/OffsetX
350
5BB
  3
PageSettings/OffsetY
350
5BC
  3
PageSettings/PageOrientation
350
5BD
  3
PageSettings/PaperHeight
350
5BE
  3
PageSettings/PaperWidth
350
5BF
  3
PageSettings/Scale
350
5C0
  3
PageSettings/ShowPaperBorders
350
5C1
  3
PageTagSettings/EnablePageTags
350
5C2
  3
PageTagSettings/TagAlignment
350
5C3
  3
PageTagSettings/TagFont
350
5C4
  3
PageTagSettings/TagPosition
350
5C5
  3
QCADVersion
350
5C6
  3
UnitSettings/Measurement
350
5C7
  3
UnitSettings/PaperUnit
350
5C8
  3
ViewportCenter
350
5C9
  3
ViewportHeight
350
5CA
  3
ViewportWidth
350
5CB
  0
LAYOUT
  5
543
102
{ACAD_REACTORS
330
53F
102
}
330
53F
100
AcDbPlotSettings
  1

  2
none_device
  4
ISO_A4_(210.00_x_297.00_MM)
  6

 40
7.5
 41
20.0
 42
7.5
 43
20.0
 44
210.0
 45
297.0
 46
0.0
 47
0.0
 48
0.0
 49
0.0
140
0.0
141
0.0
142
1.0
143
1.0
 70
   688
 72
     1
 73
     1
 74
     5
  7

 75
    16
 76
     0
 77
     2
 78
   300
147
1.0
148
0.0
149
0.0
100
AcDbLayout
  1
Layout1
 70
     1
 71
     0
 10
-20.0
 20
-7.5
 11
277.0
 21
202.5
 12
0.0
 22
0.0
 32
0.0
 14
0.0
 24
0.0
 34
0.0
 15
0.0
 25
0.0
 35
0.0
146
0.0
 13
0.0
 23
0.0
 33
0.0
 16
1.0
 26
0.0
 36
0.0
 17
0.0
 27
1.0
 37
0.0
 76
     0
330
540
331
608
  0
LAYOUT
  5
547
102
{ACAD_REACTORS
330
53F
102
}
330
53F
100
AcDbPlotSettings
  1

  2
none_device
  4
Letter_(8.50_x_11.00_Inches)
  6

 40
6.35
 41
6.35
 42
6.35000508
 43
6.35000508
 44
215.9
 45
279.4
 46
0.0
 47
0.0
 48
0.0
 49
0.0
140
0.0
141
0.0
142
1.0
143
1.0
 70
  1712
 72
     0
 73
     0
 74
     0
  7

 75
     0
 76
     0
 77
     2
 78
   300
147
1.0
148
0.0
149
0.0
100
AcDbLayout
  1
Model
 70
     1
 71
     0
 10
0.0
 20
0.0
 11
12.0
 21
9.0
 12
0.0
 22
0.0
 32
0.0
 14
0.0
 24
0.0
 34
0.0
 15
431.8
 25
279.4
 35
0.0
146
0.0
 13
0.0
 23
0.0
 33
0.0
 16
1.0
 26
0.0
 36
0.0
 17
0.0
 27
1.0
 37
0.0
 76
     0
330
544
331
54E
  0
MATERIAL
  5
56A
102
{ACAD_REACTORS
330
568
102
}
330
568
100
AcDbMaterial
  1
ByBlock
 72
     1
 94
      127
  0
MATERIAL
  5
569
102
{ACAD_REACTORS
330
568
102
}
330
568
100
AcDbMaterial
  1
ByLayer
 72
     1
 94
      127
  0
MATERIAL
  5
56B
102
{ACAD_REACTORS
330
568
102
}
330
568
100
AcDbMaterial
  1
Global
 72
     1
 94
      127
  0
MLEADERSTYLE
  5
591
102
{ACAD_REACTORS
330
590
102
}
330
590
100
AcDbMLeaderStyle
179
     2
170
     2
171
     1
172
     0
 90
        2
 40
0.0
 41
0.0
173
     1
 91
-1056964608
340
539
 92
       -2
290
     1
 42
0.09
291
     1
 43
0.36
  3
Standard
341
0
 44
0.18
300

342
537
174
     1
178
     6
175
     1
176
     0
 93
-1056964608
 45
0.18
292
     0
297
     0
 46
0.18
343
0
 94
-1056964608
 47
1.0
 49
1.0
140
1.0
293
     1
141
0.0
294
     1
177
     0
142
1.0
295
     0
296
     0
143
0.125
271
     0
272
     9
273
     9
298
     0
  0
MLINESTYLE
  5
53D
102
{ACAD_REACTORS
330
53C
102
}
330
53C
100
AcDbMlineStyle
  2
Standard
 70
     0
  3

 62
   256
 51
90.0
 52
90.0
 71
     2
 49
0.5
 62
   256
  6
BYLAYER
 49
-0.5
 62
   256
  6
BYLAYER
  0
ACDBPLACEHOLDER
  5
535
102
{ACAD_REACTORS
330
534
102
}
330
534
  0
SCALE
  5
56D
102
{ACAD_REACTORS
330
56C
102
}
330
56C
100
AcDbScale
 70
     0
300
1:1
140
1.0
141
1.0
290
     1
  0
SCALE
  5
56E
102
{ACAD_REACTORS
330
56C
102
}
330
56C
100
AcDbScale
 70
     0
300
1:2
140
1.0
141
2.0
290
     0
  0
SCALE
  5
56F
102
{ACAD_REACTORS
330
56C
102
}
330
56C
100
AcDbScale
 70
     0
300
1:4
140
1.0
141
4.0
290
     0
  0
SCALE
  5
570
102
{ACAD_REACTORS
330
56C
102
}
330
56C
100
AcDbScale
 70
     0
300
1:5
140
1.0
141
5.0
290
     0
  0
SCALE
  5
571
102
{ACAD_REACTORS
330
56C
102
}
330
56C
100
AcDbScale
 70
     0
300
1:8
140
1.0
141
8.0
290
     0
  0
SCALE
  5
572
102
{ACAD_REACTORS
330
56C
102
}
330
56C
100
AcDbScale
 70
     0
300
1:10
140
1.0
141
10.0
290
     0
  0
SCALE
  5
573
102
{ACAD_REACTORS
330
56C
102
}
330
56C
100
AcDbScale
 70
     0
300
1:16
140
1.0
141
16.0
290
     0
  0
SCALE
  5
574
102
{ACAD_REACTORS
330
56C
102
}
330
56C
100
AcDbScale
 70
     0
300
1:20
140
1.0
141
20.0
290
     0
  0
SCALE
  5
575
102
{ACAD_REACTORS
330
56C
102
}
330
56C
100
AcDbScale
 70
     0
300
1:30
140
1.0
141
30.0
290
     0
  0
SCALE
  5
576
102
{ACAD_REACTORS
330
56C
102
}
330
56C
100
AcDbScale
 70
     0
300
1:40
140
1.0
141
40.0
290
     0
  0
SCALE
  5
577
102
{ACAD_REACTORS
330
56C
102
}
330
56C
100
AcDbScale
 70
     0
300
1:50
140
1.0
141
50.0
290
     0
  0
SCALE
  5
578
102
{ACAD_REACTORS
330
56C
102
}
330
56C
100
AcDbScale
 70
     0
300
1:100
140
1.0
141
100.0
290
     0
  0
SCALE
  5
579
102
{ACAD_REACTORS
330
56C
102
}
330
56C
100
AcDbScale
 70
     0
300
2:1
140
2.0
141
1.0
290
     0
  0
SCALE
  5
57A
102
{ACAD_REACTORS
330
56C
102
}
330
56C
100
AcDbScale
 70
     0
300
4:1
140
4.0
141
1.0
290
     0
  0
SCALE
  5
57B
102
{ACAD_REACTORS
330
56C
102
}
330
56C
100
AcDbScale
 70
     0
300
8:1
140
8.0
141
1.0
290
     0
  0
SCALE
  5
57C
102
{ACAD_REACTORS
330
56C
102
}
330
56C
100
AcDbScale
 70
     0
300
10:1
140
10.0
141
1.0
290
     0
  0
SCALE
  5
57D
102
{ACAD_REACTORS
330
56C
102
}
330
56C
100
AcDbScale
 70
     0
300
100:1
140
100.0
141
1.0
290
     0
  0
SCALE
  5
57E
102
{ACAD_REACTORS
330
56C
102
}
330
56C
100
AcDbScale
 70
     0
300
1/128" = 1'-0"
140
0.0078125
141
12.0
290
     0
  0
SCALE
  5
57F
102
{ACAD_REACTORS
330
56C
102
}
330
56C
100
AcDbScale
 70
     0
300
1/64" = 1'-0"
140
0.015625
141
12.0
290
     0
  0
SCALE
  5
580
102
{ACAD_REACTORS
330
56C
102
}
330
56C
100
AcDbScale
 70
     0
300
1/32" = 1'-0"
140
0.03125
141
12.0
290
     0
  0
SCALE
  5
581
102
{ACAD_REACTORS
330
56C
102
}
330
56C
100
AcDbScale
 70
     0
300
1/16" = 1'-0"
140
0.0625
141
12.0
290
     0
  0
SCALE
  5
582
102
{ACAD_REACTORS
330
56C
102
}
330
56C
100
AcDbScale
 70
     0
300
3/32" = 1'-0"
140
0.09375
141
12.0
290
     0
  0
SCALE
  5
583
102
{ACAD_REACTORS
330
56C
102
}
330
56C
100
AcDbScale
 70
     0
300
1/8" = 1'-0"
140
0.125
141
12.0
290
     0
  0
SCALE
  5
584
102
{ACAD_REACTORS
330
56C
102
}
330
56C
100
AcDbScale
 70
     0
300
3/16" = 1'-0"
140
0.1875
141
12.0
290
     0
  0
SCALE
  5
585
102
{ACAD_REACTORS
330
56C
102
}
330
56C
100
AcDbScale
 70
     0
300
1/4" = 1'-0"
140
0.25
141
12.0
290
     0
  0
SCALE
  5
586
102
{ACAD_REACTORS
330
56C
102
}
330
56C
100
AcDbScale
 70
     0
300
3/8" = 1'-0"
140
0.375
141
12.0
290
     0
  0
SCALE
  5
587
102
{ACAD_REACTORS
330
56C
102
}
330
56C
100
AcDbScale
 70
     0
300
1/2" = 1'-0"
140
0.5
141
12.0
290
     0
  0
SCALE
  5
588
102
{ACAD_REACTORS
330
56C
102
}
330
56C
100
AcDbScale
 70
     0
300
3/4" = 1'-0"
140
0.75
141
12.0
290
     0
  0
SCALE
  5
589
102
{ACAD_REACTORS
330
56C
102
}
330
56C
100
AcDbScale
 70
     0
300
1" = 1'-0"
140
1.0
141
12.0
290
     0
  0
SCALE
  5
58A
102
{ACAD_REACTORS
330
56C
102
}
330
56C
100
AcDbScale
 70
     0
300
1-1/2" = 1'-0"
140
1.5
141
12.0
290
     0
  0
SCALE
  5
58B
102
{ACAD_REACTORS
330
56C
102
}
330
56C
100
AcDbScale
 70
     0
300
3" = 1'-0"
140
3.0
141
12.0
290
     0
  0
SCALE
  5
58C
102
{ACAD_REACTORS
330
56C
102
}
330
56C
100
AcDbScale
 70
     0
300
6" = 1'-0"
140
6.0
141
12.0
290
     0
  0
SCALE
  5
58D
102
{ACAD_REACTORS
330
56C
102
}
330
56C
100
AcDbScale
 70
     0
300
1'-0" = 1'-0"
140
12.0
141
12.0
290
     0
  0
TABLESTYLE
  5
58F
102
{ACAD_REACTORS
330
58E
102
}
102
{ACAD_XDICTIONARY
360
673
102
}
330
58E
100
AcDbTableStyle
  3
Standard
 70
     0
 71
     0
 40
0.06
 41
0.06
280
     0
281
     0
  7
Standard
140
0.18
170
     2
 62
     0
 63
   257
283
     0
 90
        4
 91
        0
  1

274
    -2
284
     1
 64
     0
275
    -2
285
     1
 65
     0
276
    -2
286
     1
 66
     0
277
    -2
287
     1
 67
     0
278
    -2
288
     1
 68
     0
279
    -2
289
     1
 69
     0
  7
Standard
140
0.25
170
     5
 62
     0
 63
   257
283
     0
 90
        4
 91
        0
  1

274
    -2
284
     1
 64
     0
275
    -2
285
     1
 65
     0
276
    -2
286
     1
 66
     0
277
    -2
287
     1
 67
     0
278
    -2
288
     1
 68
     0
279
    -2
289
     1
 69
     0
  7
Standard
140
0.18
170
     5
 62
     0
 63
   257
283
     0
 90
        4
 91
        0
  1

274
    -2
284
     1
 64
     0
275
    -2
285
     1
 65
     0
276
    -2
286
     1
 66
     0
277
    -2
287
     1
 67
     0
278
    -2
288
     1
 68
     0
279
    -2
289
     1
 69
     0
  0
VISUALSTYLE
  5
554
102
{ACAD_REACTORS
330
54F
102
}
330
54F
100
AcDbVisualStyle
  2
2dWireframe
 70
     4
177
     3
291
     0
 70
    58
 90
        0
176
     1
 90
        2
176
     1
 90
        0
176
     1
 90
        0
176
     1
 40
0.6
176
     1
 40
30.0
176
     1
 62
     7
420
 16777215
176
     1
 90
        1
176
     1
 90
        4
176
     1
 62
     7
176
     1
 62
   257
176
     1
 90
        1
176
     1
 90
        1
176
     1
 40
1.0
176
     1
 90
        0
176
     1
 62
   257
176
     1
 40
1.0
176
     1
 90
        1
176
     1
 90
        6
176
     1
 90
        2
176
     1
 62
     7
176
     1
 90
        5
176
     1
 90
        0
176
     1
 90
        0
176
     1
290
     0
176
     1
 90
        1
176
     1
 40
0.0
176
     1
 90
        0
176
     1
290
     1
176
     1
290
     1
176
     1
290
     0
176
     1
290
     0
176
     1
290
     0
176
     1
290
     0
176
     1
290
     0
176
     1
290
     0
176
     1
290
     0
176
     1
 90
       50
176
     1
 40
0.0
176
     1
 40
1.0
176
     1
 90
        0
176
     1
 62
    18
420
        0
176
     1
 90
       50
176
     1
 90
        3
176
     1
 62
     5
420
      255
176
     1
290
     0
176
     1
 90
       50
176
     1
 90
       50
176
     1
 90
       50
176
     1
290
     0
176
     1
 90
       50
176
     1
 62
   256
176
     0
 40
1.0
176
     0
 90
        2
176
     1
  1
strokes_ogs.tif
176
     1
290
     0
176
     1
 40
1.0
176
     1
 40
1.0
176
     1
  0
VISUALSTYLE
  5
557
102
{ACAD_REACTORS
330
54F
102
}
330
54F
100
AcDbVisualStyle
  2
Basic
 70
     7
177
     3
291
     1
 70
    58
 90
        1
176
     1
 90
        0
176
     1
 90
        1
176
     1
 90
        0
176
     1
 40
0.6
176
     1
 40
30.0
176
     1
 62
     7
420
 16777215
176
     1
 90
        0
176
     1
 90
        4
176
     1
 62
     7
176
     1
 62
   257
176
     1
 90
        1
176
     1
 90
        1
176
     1
 40
1.0
176
     1
 90
        8
176
     1
 62
     7
176
     1
 40
1.0
176
     1
 90
        1
176
     1
 90
        6
176
     1
 90
        2
176
     1
 62
     7
176
     1
 90
        5
176
     1
 90
        0
176
     1
 90
        0
176
     1
290
     0
176
     1
 90
        1
176
     1
 40
0.0
176
     1
 90
        0
176
     1
290
     0
176
     1
290
     1
176
     1
290
     1
176
     1
290
     0
176
     1
290
     0
176
     1
290
     0
176
     1
290
     0
176
     1
290
     0
176
     1
290
     0
176
     1
 90
       50
176
     1
 40
0.0
176
     1
 40
1.0
176
     1
 90
        0
176
     1
 62
    18
420
        0
176
     1
 90
       50
176
     1
 90
        3
176
     1
 62
     5
420
      255
176
     1
290
     0
176
     1
 90
       50
176
     1
 90
       50
176
     1
 90
       50
176
     1
290
     0
176
     1
 90
       50
176
     1
 62
   256
176
     0
 40
1.0
176
     0
 90
        2
176
     1
  1
strokes_ogs.tif
176
     1
290
     0
176
     1
 40
1.0
176
     1
 40
1.0
176
     1
  0
VISUALSTYLE
  5
55B
102
{ACAD_REACTORS
330
54F
102
}
330
54F
100
AcDbVisualStyle
  2
Brighten
 70
    12
177
     3
291
     1
 70
    58
 90
        2
176
     1
 90
        2
176
     1
 90
        0
176
     1
 90
        0
176
     1
 40
0.6
176
     1
 40
30.0
176
     1
 62
     7
420
 16777215
176
     1
 90
        1
176
     1
 90
        4
176
     1
 62
     7
176
     1
 62
   257
176
     1
 90
        1
176
     1
 90
        1
176
     1
 40
1.0
176
     1
 90
        8
176
     1
 62
     7
176
     1
 40
1.0
176
     1
 90
        1
176
     1
 90
        6
176
     1
 90
        2
176
     1
 62
     7
176
     1
 90
        5
176
     1
 90
        0
176
     1
 90
        0
176
     1
290
     0
176
     1
 90
        1
176
     1
 40
50.0
176
     1
 90
        0
176
     1
290
     0
176
     1
290
     1
176
     1
290
     1
176
     1
290
     0
176
     1
290
     0
176
     1
290
     0
176
     1
290
     0
176
     1
290
     0
176
     1
290
     0
176
     1
 90
       50
176
     1
 40
0.0
176
     1
 40
1.0
176
     1
 90
        0
176
     1
 62
    18
420
        0
176
     1
 90
       50
176
     1
 90
        3
176
     1
 62
     5
420
      255
176
     1
290
     0
176
     1
 90
       50
176
     1
 90
       50
176
     1
 90
       50
176
     1
290
     0
176
     1
 90
       50
176
     1
 62
   256
176
     0
 40
1.0
176
     0
 90
        2
176
     1
  1
strokes_ogs.tif
176
     1
290
     0
176
     1
 40
1.0
176
     1
 40
1.0
176
     1
  0
VISUALSTYLE
  5
55F
102
{ACAD_REACTORS
330
54F
102
}
330
54F
100
AcDbVisualStyle
  2
ColorChange
 70
    16
177
     3
291
     1
 70
    58
 90
        2
176
     1
 90
        2
176
     1
 90
        3
176
     1
 90
        0
176
     1
 40
0.6
176
     1
 40
30.0
176
     1
 62
     8
420
  8421504
176
     1
 90
        1
176
     1
 90
        4
176
     1
 62
     7
176
     1
 62
   257
176
     1
 90
        1
176
     1
 90
        1
176
     1
 40
1.0
176
     1
 90
        8
176
     1
 62
     8
420
  8421504
176
     1
 40
1.0
176
     1
 90
        1
176
     1
 90
        6
176
     1
 90
        2
176
     1
 62
     7
176
     1
 90
        5
176
     1
 90
        0
176
     1
 90
        0
176
     1
290
     0
176
     1
 90
        1
176
     1
 40
0.0
176
     1
 90
        0
176
     1
290
     0
176
     1
290
     1
176
     1
290
     1
176
     1
290
     0
176
     1
290
     0
176
     1
290
     0
176
     1
290
     0
176
     1
290
     0
176
     1
290
     0
176
     1
 90
       50
176
     1
 40
0.0
176
     1
 40
1.0
176
     1
 90
        0
176
     1
 62
    18
420
        0
176
     1
 90
       50
176
     1
 90
        3
176
     1
 62
     5
420
      255
176
     1
290
     0
176
     1
 90
       50
176
     1
 90
       50
176
     1
 90
       50
176
     1
290
     0
176
     1
 90
       50
176
     1
 62
   256
176
     0
 40
1.0
176
     0
 90
        2
176
     1
  1
strokes_ogs.tif
176
     1
290
     0
176
     1
 40
1.0
176
     1
 40
1.0
176
     1
  0
VISUALSTYLE
  5
559
102
{ACAD_REACTORS
330
54F
102
}
330
54F
100
AcDbVisualStyle
  2
Conceptual
 70
     9
177
     3
291
     0
 70
    58
 90
        3
176
     1
 90
        2
176
     1
 90
        0
176
     1
 90
        0
176
     1
 40
0.6
176
     1
 40
30.0
176
     1
 62
     7
420
 16777215
176
     1
 90
        2
176
     1
 90
        2
176
     1
 62
     7
176
     1
 62
   257
176
     1
 90
        1
176
     1
 90
        1
176
     1
 40
179.0
176
     1
 90
        8
176
     1
 62
     7
176
     1
 40
1.0
176
     1
 90
        1
176
     1
 90
        6
176
     1
 90
        2
176
     1
 62
     7
176
     1
 90
        3
176
     1
 90
        0
176
     1
 90
        0
176
     1
290
     0
176
     1
 90
        1
176
     1
 40
0.0
176
     1
 90
        0
176
     1
290
     0
176
     1
290
     1
176
     1
290
     1
176
     1
290
     0
176
     1
290
     0
176
     1
290
     0
176
     1
290
     0
176
     1
290
     0
176
     1
290
     0
176
     1
 90
       50
176
     1
 40
0.0
176
     1
 40
1.0
176
     1
 90
        0
176
     1
 62
    18
420
        0
176
     1
 90
       50
176
     1
 90
        3
176
     1
 62
     5
420
      255
176
     1
290
     0
176
     1
 90
       50
176
     1
 90
       50
176
     1
 90
       50
176
     1
290
     0
176
     1
 90
       50
176
     1
 62
   256
176
     0
 40
1.0
176
     0
 90
        2
176
     1
  1
strokes_ogs.tif
176
     1
290
     0
176
     1
 40
1.0
176
     1
 40
1.0
176
     1
  0
VISUALSTYLE
  5
55A
102
{ACAD_REACTORS
330
54F
102
}
330
54F
100
AcDbVisualStyle
  2
Dim
 70
    11
177
     3
291
     1
 70
    58
 90
        2
176
     1
 90
        2
176
     1
 90
        0
176
     1
 90
        0
176
     1
 40
0.6
176
     1
 40
30.0
176
     1
 62
     7
420
 16777215
176
     1
 90
        1
176
     1
 90
        4
176
     1
 62
     7
176
     1
 62
   257
176
     1
 90
        1
176
     1
 90
        1
176
     1
 40
1.0
176
     1
 90
        8
176
     1
 62
     7
176
     1
 40
1.0
176
     1
 90
        1
176
     1
 90
        6
176
     1
 90
        2
176
     1
 62
     7
176
     1
 90
        5
176
     1
 90
        0
176
     1
 90
        0
176
     1
290
     0
176
     1
 90
        1
176
     1
 40
-50.0
176
     1
 90
        0
176
     1
290
     0
176
     1
290
     1
176
     1
290
     1
176
     1
290
     0
176
     1
290
     0
176
     1
290
     0
176
     1
290
     0
176
     1
290
     0
176
     1
290
     0
176
     1
 90
       50
176
     1
 40
0.0
176
     1
 40
1.0
176
     1
 90
        0
176
     1
 62
    18
420
        0
176
     1
 90
       50
176
     1
 90
        3
176
     1
 62
     5
420
      255
176
     1
290
     0
176
     1
 90
       50
176
     1
 90
       50
176
     1
 90
       50
176
     1
290
     0
176
     1
 90
       50
176
     1
 62
   256
176
     0
 40
1.0
176
     0
 90
        2
176
     1
  1
strokes_ogs.tif
176
     1
290
     0
176
     1
 40
1.0
176
     1
 40
1.0
176
     1
  0
VISUALSTYLE
  5
562
102
{ACAD_REACTORS
330
54F
102
}
330
54F
100
AcDbVisualStyle
  2
EdgeColorOff
 70
    22
177
     3
291
     1
 70
    58
 90
        2
176
     0
 90
        2
176
     0
 90
        0
176
     0
 90
        0
176
     0
 40
0.6
176
     0
 40
30.0
176
     0
 62
     7
420
 16777215
176
     0
 90
        1
176
     0
 90
        4
176
     0
 62
     7
176
     0
 62
   257
176
     0
 90
        1
176
     0
 90
        1
176
     0
 40
1.0
176
     0
 90
        8
176
     2
 62
     7
176
     0
 40
1.0
176
     0
 90
        1
176
     0
 90
        6
176
     0
 90
        2
176
     0
 62
     7
176
     0
 90
        5
176
     0
 90
        0
176
     0
 90
        0
176
     0
290
     0
176
     0
 90
        1
176
     0
 40
0.0
176
     0
 90
        0
176
     0
290
     0
176
     0
290
     1
176
     0
290
     1
176
     0
290
     0
176
     0
290
     0
176
     0
290
     0
176
     0
290
     0
176
     0
290
     0
176
     0
290
     0
176
     0
 90
       50
176
     0
 40
0.0
176
     0
 40
1.0
176
     0
 90
        0
176
     0
 62
    18
420
        0
176
     0
 90
       50
176
     0
 90
        3
176
     0
 62
     5
420
      255
176
     0
290
     0
176
     0
 90
       50
176
     0
 90
       50
176
     0
 90
       50
176
     0
290
     0
176
     0
 90
       50
176
     0
 62
   256
176
     0
 40
1.0
176
     0
 90
        2
176
     0
  1
strokes_ogs.tif
176
     0
290
     0
176
     0
 40
1.0
176
     0
 40
1.0
176
     0
  0
VISUALSTYLE
  5
55E
102
{ACAD_REACTORS
330
54F
102
}
330
54F
100
AcDbVisualStyle
  2
Facepattern
 70
    15
177
     3
291
     1
 70
    58
 90
        2
176
     1
 90
        2
176
     1
 90
        0
176
     1
 90
        0
176
     1
 40
0.6
176
     1
 40
30.0
176
     1
 62
     7
420
 16777215
176
     1
 90
        1
176
     1
 90
        4
176
     1
 62
     7
176
     1
 62
   257
176
     1
 90
        1
176
     1
 90
        1
176
     1
 40
1.0
176
     1
 90
        8
176
     1
 62
     7
176
     1
 40
1.0
176
     1
 90
        1
176
     1
 90
        6
176
     1
 90
        2
176
     1
 62
     7
176
     1
 90
        5
176
     1
 90
        0
176
     1
 90
        0
176
     1
290
     0
176
     1
 90
        1
176
     1
 40
0.0
176
     1
 90
        0
176
     1
290
     0
176
     1
290
     1
176
     1
290
     1
176
     1
290
     0
176
     1
290
     0
176
     1
290
     0
176
     1
290
     0
176
     1
290
     0
176
     1
290
     0
176
     1
 90
       50
176
     1
 40
0.0
176
     1
 40
1.0
176
     1
 90
        0
176
     1
 62
    18
420
        0
176
     1
 90
       50
176
     1
 90
        3
176
     1
 62
     5
420
      255
176
     1
290
     0
176
     1
 90
       50
176
     1
 90
       50
176
     1
 90
       50
176
     1
290
     0
176
     1
 90
       50
176
     1
 62
   256
176
     0
 40
1.0
176
     0
 90
        2
176
     1
  1
strokes_ogs.tif
176
     1
290
     0
176
     1
 40
1.0
176
     1
 40
1.0
176
     1
  0
VISUALSTYLE
  5
550
102
{ACAD_REACTORS
330
54F
102
}
330
54F
100
AcDbVisualStyle
  2
Flat
 70
     0
177
     3
291
     1
 70
    58
 90
        2
176
     1
 90
        1
176
     1
 90
        1
176
     1
 90
        2
176
     1
 40
0.6
176
     1
 40
30.0
176
     1
 62
     7
420
 16777215
176
     1
 90
        0
176
     1
 90
        0
176
     1
 62
     7
176
     1
 62
   257
176
     1
 90
        1
176
     1
 90
        1
176
     1
 40
1.0
176
     1
 90
        8
176
     1
 62
     7
176
     1
 40
1.0
176
     1
 90
        1
176
     1
 90
        6
176
     1
 90
        2
176
     1
 62
     7
176
     1
 90
        5
176
     1
 90
        0
176
     1
 90
        0
176
     1
290
     0
176
     1
 90
       13
176
     1
 40
0.0
176
     1
 90
        0
176
     1
290
     0
176
     1
290
     1
176
     1
290
     1
176
     1
290
     0
176
     1
290
     0
176
     1
290
     0
176
     1
290
     0
176
     1
290
     0
176
     1
290
     0
176
     1
 90
       50
176
     1
 40
0.0
176
     1
 40
1.0
176
     1
 90
        0
176
     1
 62
    18
420
        0
176
     1
 90
       50
176
     1
 90
        3
176
     1
 62
     5
420
      255
176
     1
290
     0
176
     1
 90
       50
176
     1
 90
       50
176
     1
 90
       50
176
     1
290
     0
176
     1
 90
       50
176
     1
 62
   256
176
     0
 40
1.0
176
     0
 90
        2
176
     1
  1
strokes_ogs.tif
176
     1
290
     0
176
     1
 40
1.0
176
     1
 40
1.0
176
     1
  0
VISUALSTYLE
  5
551
102
{ACAD_REACTORS
330
54F
102
}
330
54F
100
AcDbVisualStyle
  2
FlatWithEdges
 70
     1
177
     3
291
     1
 70
    58
 90
        2
176
     1
 90
        1
176
     1
 90
        1
176
     1
 90
        2
176
     1
 40
0.6
176
     1
 40
30.0
176
     1
 62
     7
420
 16777215
176
     1
 90
        1
176
     1
 90
        0
176
     1
 62
     7
176
     1
 62
   257
176
     1
 90
        1
176
     1
 90
        1
176
     1
 40
1.0
176
     1
 90
        0
176
     1
 62
   257
176
     1
 40
1.0
176
     1
 90
        1
176
     1
 90
        6
176
     1
 90
        2
176
     1
 62
     7
176
     1
 90
        5
176
     1
 90
        0
176
     1
 90
        0
176
     1
290
     0
176
     1
 90
       13
176
     1
 40
0.0
176
     1
 90
        0
176
     1
290
     0
176
     1
290
     1
176
     1
290
     1
176
     1
290
     0
176
     1
290
     0
176
     1
290
     0
176
     1
290
     0
176
     1
290
     0
176
     1
290
     0
176
     1
 90
       50
176
     1
 40
0.0
176
     1
 40
1.0
176
     1
 90
        0
176
     1
 62
    18
420
        0
176
     1
 90
       50
176
     1
 90
        3
176
     1
 62
     5
420
      255
176
     1
290
     0
176
     1
 90
       50
176
     1
 90
       50
176
     1
 90
       50
176
     1
290
     0
176
     1
 90
       50
176
     1
 62
   256
176
     0
 40
1.0
176
     0
 90
        2
176
     1
  1
strokes_ogs.tif
176
     1
290
     0
176
     1
 40
1.0
176
     1
 40
1.0
176
     1
  0
VISUALSTYLE
  5
552
102
{ACAD_REACTORS
330
54F
102
}
330
54F
100
AcDbVisualStyle
  2
Gouraud
 70
     2
177
     3
291
     1
 70
    58
 90
        2
176
     1
 90
        2
176
     1
 90
        1
176
     1
 90
        2
176
     1
 40
0.6
176
     1
 40
30.0
176
     1
 62
     7
420
 16777215
176
     1
 90
        0
176
     1
 90
        0
176
     1
 62
     7
176
     1
 62
   257
176
     1
 90
        1
176
     1
 90
        1
176
     1
 40
1.0
176
     1
 90
        0
176
     1
 62
     7
176
     1
 40
1.0
176
     1
 90
        1
176
     1
 90
        6
176
     1
 90
        2
176
     1
 62
     7
176
     1
 90
        5
176
     1
 90
        0
176
     1
 90
        0
176
     1
290
     0
176
     1
 90
       13
176
     1
 40
0.0
176
     1
 90
        0
176
     1
290
     0
176
     1
290
     1
176
     1
290
     1
176
     1
290
     0
176
     1
290
     0
176
     1
290
     0
176
     1
290
     0
176
     1
290
     0
176
     1
290
     0
176
     1
 90
       50
176
     1
 40
0.0
176
     1
 40
1.0
176
     1
 90
        0
176
     1
 62
    18
420
        0
176
     1
 90
       50
176
     1
 90
        3
176
     1
 62
     5
420
      255
176
     1
290
     0
176
     1
 90
       50
176
     1
 90
       50
176
     1
 90
       50
176
     1
290
     0
176
     1
 90
       50
176
     1
 62
   256
176
     0
 40
1.0
176
     0
 90
        2
176
     1
  1
strokes_ogs.tif
176
     1
290
     0
176
     1
 40
1.0
176
     1
 40
1.0
176
     1
  0
VISUALSTYLE
  5
553
102
{ACAD_REACTORS
330
54F
102
}
330
54F
100
AcDbVisualStyle
  2
GouraudWithEdges
 70
     3
177
     3
291
     1
 70
    58
 90
        2
176
     1
 90
        2
176
     1
 90
        1
176
     1
 90
        2
176
     1
 40
0.6
176
     1
 40
30.0
176
     1
 62
     7
420
 16777215
176
     1
 90
        1
176
     1
 90
        0
176
     1
 62
     7
176
     1
 62
   257
176
     1
 90
        1
176
     1
 90
        1
176
     1
 40
1.0
176
     1
 90
        0
176
     1
 62
   257
176
     1
 40
1.0
176
     1
 90
        1
176
     1
 90
        6
176
     1
 90
        2
176
     1
 62
     7
176
     1
 90
        5
176
     1
 90
        0
176
     1
 90
        0
176
     1
290
     0
176
     1
 90
       13
176
     1
 40
0.0
176
     1
 90
        0
176
     1
290
     0
176
     1
290
     1
176
     1
290
     1
176
     1
290
     0
176
     1
290
     0
176
     1
290
     0
176
     1
290
     0
176
     1
290
     0
176
     1
290
     0
176
     1
 90
       50
176
     1
 40
0.0
176
     1
 40
1.0
176
     1
 90
        0
176
     1
 62
    18
420
        0
176
     1
 90
       50
176
     1
 90
        3
176
     1
 62
     5
420
      255
176
     1
290
     0
176
     1
 90
       50
176
     1
 90
       50
176
     1
 90
       50
176
     1
290
     0
176
     1
 90
       50
176
     1
 62
   256
176
     0
 40
1.0
176
     0
 90
        2
176
     1
  1
strokes_ogs.tif
176
     1
290
     0
176
     1
 40
1.0
176
     1
 40
1.0
176
     1
  0
VISUALSTYLE
  5
556
102
{ACAD_REACTORS
330
54F
102
}
330
54F
100
AcDbVisualStyle
  2
Hidden
 70
     6
177
     3
291
     0
 70
    58
 90
        1
176
     1
 90
        2
176
     1
 90
        2
176
     1
 90
        0
176
     1
 40
0.6
176
     1
 40
30.0
176
     1
 62
     7
420
 16777215
176
     1
 90
        2
176
     1
 90
        2
176
     1
 62
     7
176
     1
 62
   257
176
     1
 90
        2
176
     1
 90
        1
176
     1
 40
40.0
176
     1
 90
        0
176
     1
 62
   257
176
     1
 40
1.0
176
     1
 90
        1
176
     1
 90
        6
176
     1
 90
        2
176
     1
 62
     7
176
     1
 90
        3
176
     1
 90
        0
176
     1
 90
        0
176
     1
290
     0
176
     1
 90
        1
176
     1
 40
0.0
176
     1
 90
        0
176
     1
290
     0
176
     1
290
     1
176
     1
290
     1
176
     1
290
     0
176
     1
290
     0
176
     1
290
     0
176
     1
290
     0
176
     1
290
     0
176
     1
290
     0
176
     1
 90
       50
176
     1
 40
0.0
176
     1
 40
1.0
176
     1
 90
        0
176
     1
 62
    18
420
        0
176
     1
 90
       50
176
     1
 90
        3
176
     1
 62
     5
420
      255
176
     1
290
     0
176
     1
 90
       50
176
     1
 90
       50
176
     1
 90
       50
176
     1
290
     0
176
     1
 90
       50
176
     1
 62
   256
176
     0
 40
1.0
176
     0
 90
        2
176
     1
  1
strokes_ogs.tif
176
     1
290
     0
176
     1
 40
1.0
176
     1
 40
1.0
176
     1
  0
VISUALSTYLE
  5
560
102
{ACAD_REACTORS
330
54F
102
}
330
54F
100
AcDbVisualStyle
  2
JitterOff
 70
    20
177
     3
291
     1
 70
    58
 90
        2
176
     0
 90
        2
176
     0
 90
        0
176
     0
 90
        0
176
     0
 40
0.6
176
     0
 40
30.0
176
     0
 62
     7
420
 16777215
176
     0
 90
        1
176
     0
 90
        4
176
     0
 62
     7
176
     0
 62
   257
176
     0
 90
        1
176
     0
 90
        1
176
     0
 40
1.0
176
     0
 90
       10
176
     2
 62
     7
176
     0
 40
1.0
176
     0
 90
        1
176
     0
 90
        6
176
     0
 90
        2
176
     0
 62
     7
176
     0
 90
        5
176
     0
 90
        0
176
     0
 90
        0
176
     0
290
     0
176
     0
 90
        1
176
     0
 40
0.0
176
     0
 90
        0
176
     0
290
     0
176
     0
290
     1
176
     0
290
     1
176
     0
290
     0
176
     0
290
     0
176
     0
290
     0
176
     0
290
     0
176
     0
290
     0
176
     0
290
     0
176
     0
 90
       50
176
     0
 40
0.0
176
     0
 40
1.0
176
     0
 90
        0
176
     0
 62
    18
420
        0
176
     0
 90
       50
176
     0
 90
        3
176
     0
 62
     5
420
      255
176
     0
290
     0
176
     0
 90
       50
176
     0
 90
       50
176
     0
 90
       50
176
     0
290
     0
176
     0
 90
       50
176
     0
 62
   256
176
     0
 40
1.0
176
     0
 90
        2
176
     0
  1
strokes_ogs.tif
176
     0
290
     0
176
     0
 40
1.0
176
     0
 40
1.0
176
     0
  0
VISUALSTYLE
  5
55D
102
{ACAD_REACTORS
330
54F
102
}
330
54F
100
AcDbVisualStyle
  2
Linepattern
 70
    14
177
     3
291
     1
 70
    58
 90
        2
176
     1
 90
        2
176
     1
 90
        0
176
     1
 90
        0
176
     1
 40
0.6
176
     1
 40
30.0
176
     1
 62
     7
420
 16777215
176
     1
 90
        1
176
     1
 90
        4
176
     1
 62
     7
176
     1
 62
   257
176
     1
 90
        7
176
     1
 90
        7
176
     1
 40
1.0
176
     1
 90
        8
176
     1
 62
     7
176
     1
 40
1.0
176
     1
 90
        1
176
     1
 90
        6
176
     1
 90
        2
176
     1
 62
     7
176
     1
 90
        5
176
     1
 90
        0
176
     1
 90
        0
176
     1
290
     0
176
     1
 90
        1
176
     1
 40
0.0
176
     1
 90
        0
176
     1
290
     0
176
     1
290
     1
176
     1
290
     1
176
     1
290
     0
176
     1
290
     0
176
     1
290
     0
176
     1
290
     0
176
     1
290
     0
176
     1
290
     0
176
     1
 90
       50
176
     1
 40
0.0
176
     1
 40
1.0
176
     1
 90
        0
176
     1
 62
    18
420
        0
176
     1
 90
       50
176
     1
 90
        3
176
     1
 62
     5
420
      255
176
     1
290
     0
176
     1
 90
       50
176
     1
 90
       50
176
     1
 90
       50
176
     1
290
     0
176
     1
 90
       50
176
     1
 62
   256
176
     0
 40
1.0
176
     0
 90
        2
176
     1
  1
strokes_ogs.tif
176
     1
290
     0
176
     1
 40
1.0
176
     1
 40
1.0
176
     1
  0
VISUALSTYLE
  5
561
102
{ACAD_REACTORS
330
54F
102
}
330
54F
100
AcDbVisualStyle
  2
OverhangOff
 70
    21
177
     3
291
     1
 70
    58
 90
        2
176
     0
 90
        2
176
     0
 90
        0
176
     0
 90
        0
176
     0
 40
0.6
176
     0
 40
30.0
176
     0
 62
     7
420
 16777215
176
     0
 90
        1
176
     0
 90
        4
176
     0
 62
     7
176
     0
 62
   257
176
     0
 90
        1
176
     0
 90
        1
176
     0
 40
1.0
176
     0
 90
        9
176
     2
 62
     7
176
     0
 40
1.0
176
     0
 90
        1
176
     0
 90
        6
176
     0
 90
        2
176
     0
 62
     7
176
     0
 90
        5
176
     0
 90
        0
176
     0
 90
        0
176
     0
290
     0
176
     0
 90
        1
176
     0
 40
0.0
176
     0
 90
        0
176
     0
290
     0
176
     0
290
     1
176
     0
290
     1
176
     0
290
     0
176
     0
290
     0
176
     0
290
     0
176
     0
290
     0
176
     0
290
     0
176
     0
290
     0
176
     0
 90
       50
176
     0
 40
0.0
176
     0
 40
1.0
176
     0
 90
        0
176
     0
 62
    18
420
        0
176
     0
 90
       50
176
     0
 90
        3
176
     0
 62
     5
420
      255
176
     0
290
     0
176
     0
 90
       50
176
     0
 90
       50
176
     0
 90
       50
176
     0
290
     0
176
     0
 90
       50
176
     0
 62
   256
176
     0
 40
1.0
176
     0
 90
        2
176
     0
  1
strokes_ogs.tif
176
     0
290
     0
176
     0
 40
1.0
176
     0
 40
1.0
176
     0
  0
VISUALSTYLE
  5
558
102
{ACAD_REACTORS
330
54F
102
}
330
54F
100
AcDbVisualStyle
  2
Realistic
 70
     8
177
     3
291
     0
 70
    58
 90
        2
176
     1
 90
        3
176
     1
 90
        0
176
     1
 90
        2
176
     1
 40
0.6
176
     1
 40
30.0
176
     1
 62
     7
420
 16777215
176
     1
 90
        0
176
     1
 90
        0
176
     1
 62
     7
176
     1
 62
   257
176
     1
 90
        1
176
     1
 90
        1
176
     1
 40
1.0
176
     1
 90
        8
176
     1
 62
   257
176
     1
 40
1.0
176
     1
 90
        1
176
     1
 90
        6
176
     1
 90
        2
176
     1
 62
     7
176
     1
 90
        3
176
     1
 90
        0
176
     1
 90
        0
176
     1
290
     0
176
     1
 90
       13
176
     1
 40
0.0
176
     1
 90
        0
176
     1
290
     0
176
     1
290
     1
176
     1
290
     1
176
     1
290
     0
176
     1
290
     0
176
     1
290
     0
176
     1
290
     0
176
     1
290
     0
176
     1
290
     0
176
     1
 90
       50
176
     1
 40
0.0
176
     1
 40
1.0
176
     1
 90
        0
176
     1
 62
    18
420
        0
176
     1
 90
       50
176
     1
 90
        3
176
     1
 62
     5
420
      255
176
     1
290
     0
176
     1
 90
       50
176
     1
 90
       50
176
     1
 90
       50
176
     1
290
     0
176
     1
 90
       50
176
     1
 62
   256
176
     0
 40
1.0
176
     0
 90
        2
176
     1
  1
strokes_ogs.tif
176
     1
290
     0
176
     1
 40
1.0
176
     1
 40
1.0
176
     1
  0
VISUALSTYLE
  5
567
102
{ACAD_REACTORS
330
54F
102
}
330
54F
100
AcDbVisualStyle
  2
Shaded
 70
    27
177
     3
291
     0
 70
    58
 90
        2
176
     1
 90
        2
176
     1
 90
        1
176
     1
 90
        2
176
     1
 40
0.6
176
     1
 40
30.0
176
     1
 62
     7
420
 16777215
176
     1
 90
        0
176
     1
 90
        4
176
     1
 62
     7
176
     1
 62
   257
176
     1
 90
        1
176
     1
 90
        1
176
     1
 40
1.0
176
     1
 90
        8
176
     1
 62
   257
176
     1
 40
1.0
176
     1
 90
        1
176
     1
 90
        6
176
     1
 90
        2
176
     1
 62
     8
420
  7895160
176
     1
 90
        3
176
     1
 90
        0
176
     1
 90
        0
176
     1
290
     0
176
     1
 90
        5
176
     1
 40
0.0
176
     1
 90
        0
176
     1
290
     0
176
     1
290
     1
176
     1
290
     1
176
     1
290
     0
176
     1
290
     0
176
     1
290
     0
176
     1
290
     0
176
     1
290
     0
176
     1
290
     0
176
     1
 90
       50
176
     1
 40
0.0
176
     1
 40
1.0
176
     1
 90
        0
176
     1
 62
    18
420
        0
176
     1
 90
       50
176
     1
 90
        3
176
     1
 62
     5
420
      255
176
     1
290
     0
176
     1
 90
       50
176
     1
 90
       50
176
     1
 90
       50
176
     1
290
     0
176
     1
 90
       50
176
     1
 62
   256
176
     0
 40
1.0
176
     0
 90
        2
176
     1
  1
strokes_ogs.tif
176
     1
290
     0
176
     1
 40
1.0
176
     1
 40
1.0
176
     1
  0
VISUALSTYLE
  5
566
102
{ACAD_REACTORS
330
54F
102
}
330
54F
100
AcDbVisualStyle
  2
Shaded with edges
 70
    26
177
     3
291
     0
 70
    58
 90
        2
176
     1
 90
        2
176
     1
 90
        1
176
     1
 90
        2
176
     1
 40
0.6
176
     1
 40
30.0
176
     1
 62
     7
420
 16777215
176
     1
 90
        1
176
     1
 90
       10
176
     1
 62
     7
176
     1
 62
   257
176
     1
 90
        2
176
     1
 90
        1
176
     1
 40
1.0
176
     1
 90
        8
176
     1
 62
   257
176
     1
 40
1.0
176
     1
 90
        1
176
     1
 90
        6
176
     1
 90
        2
176
     1
 62
     7
176
     1
 90
        3
176
     1
 90
        0
176
     1
 90
        0
176
     1
290
     0
176
     1
 90
        5
176
     1
 40
0.0
176
     1
 90
        0
176
     1
290
     0
176
     1
290
     1
176
     1
290
     1
176
     1
290
     0
176
     1
290
     0
176
     1
290
     0
176
     1
290
     0
176
     1
290
     0
176
     1
290
     0
176
     1
 90
       50
176
     1
 40
0.0
176
     1
 40
1.0
176
     1
 90
        0
176
     1
 62
    18
420
        0
176
     1
 90
       50
176
     1
 90
        3
176
     1
 62
     5
420
      255
176
     1
290
     0
176
     1
 90
       50
176
     1
 90
       50
176
     1
 90
       50
176
     1
290
     0
176
     1
 90
       50
176
     1
 62
   256
176
     0
 40
1.0
176
     0
 90
        2
176
     1
  1
strokes_ogs.tif
176
     1
290
     0
176
     1
 40
1.0
176
     1
 40
1.0
176
     1
  0
VISUALSTYLE
  5
563
102
{ACAD_REACTORS
330
54F
102
}
330
54F
100
AcDbVisualStyle
  2
Shades of Gray
 70
    23
177
     3
291
     0
 70
    58
 90
        2
176
     1
 90
        2
176
     1
 90
        3
176
     1
 90
        0
176
     1
 40
0.6
176
     1
 40
30.0
176
     1
 62
     7
420
 16777215
176
     1
 90
        2
176
     1
 90
        2
176
     1
 62
     7
176
     1
 62
     7
176
     1
 90
        1
176
     1
 90
        1
176
     1
 40
40.0
176
     1
 90
        8
176
     1
 62
     7
176
     1
 40
1.0
176
     1
 90
        1
176
     1
 90
        6
176
     1
 90
        2
176
     1
 62
     7
176
     1
 90
        3
176
     1
 90
        0
176
     1
 90
        0
176
     1
290
     0
176
     1
 90
        1
176
     1
 40
0.0
176
     1
 90
        0
176
     1
290
     0
176
     1
290
     1
176
     1
290
     1
176
     1
290
     0
176
     1
290
     0
176
     1
290
     0
176
     1
290
     0
176
     1
290
     0
176
     1
290
     0
176
     1
 90
       50
176
     1
 40
0.0
176
     1
 40
1.0
176
     1
 90
        0
176
     1
 62
    18
420
        0
176
     1
 90
       50
176
     1
 90
        3
176
     1
 62
     5
420
      255
176
     1
290
     0
176
     1
 90
       50
176
     1
 90
       50
176
     1
 90
       50
176
     1
290
     0
176
     1
 90
       50
176
     1
 62
   256
176
     0
 40
1.0
176
     0
 90
        2
176
     1
  1
strokes_ogs.tif
176
     1
290
     0
176
     1
 40
1.0
176
     1
 40
1.0
176
     1
  0
VISUALSTYLE
  5
564
102
{ACAD_REACTORS
330
54F
102
}
330
54F
100
AcDbVisualStyle
  2
Sketchy
 70
    24
177
     3
291
     0
 70
    58
 90
        1
176
     1
 90
        2
176
     1
 90
        2
176
     1
 90
        0
176
     1
 40
0.6
176
     1
 40
30.0
176
     1
 62
     7
420
 16777215
176
     1
 90
        2
176
     1
 90
        2
176
     1
 62
     7
176
     1
 62
     7
176
     1
 90
        1
176
     1
 90
        1
176
     1
 40
40.0
176
     1
 90
       11
176
     1
 62
     7
176
     1
 40
1.0
176
     1
 90
        1
176
     1
 90
        6
176
     1
 90
        2
176
     1
 62
     7
176
     1
 90
        6
176
     1
 90
        0
176
     1
 90
        0
176
     1
290
     0
176
     1
 90
        1
176
     1
 40
0.0
176
     1
 90
        0
176
     1
290
     0
176
     1
290
     1
176
     1
290
     1
176
     1
290
     0
176
     1
290
     0
176
     1
290
     0
176
     1
290
     0
176
     1
290
     0
176
     1
290
     0
176
     1
 90
       50
176
     1
 40
0.0
176
     1
 40
1.0
176
     1
 90
        0
176
     1
 62
    18
420
        0
176
     1
 90
       50
176
     1
 90
        3
176
     1
 62
     5
420
      255
176
     1
290
     0
176
     1
 90
       50
176
     1
 90
       50
176
     1
 90
       50
176
     1
290
     0
176
     1
 90
       50
176
     1
 62
   256
176
     0
 40
1.0
176
     0
 90
        2
176
     1
  1
strokes_ogs.tif
176
     1
290
     0
176
     1
 40
1.0
176
     1
 40
1.0
176
     1
  0
VISUALSTYLE
  5
55C
102
{ACAD_REACTORS
330
54F
102
}
330
54F
100
AcDbVisualStyle
  2
Thicken
 70
    13
177
     3
291
     1
 70
    58
 90
        2
176
     1
 90
        2
176
     1
 90
        0
176
     1
 90
        0
176
     1
 40
0.6
176
     1
 40
30.0
176
     1
 62
     7
420
 16777215
176
     1
 90
        1
176
     1
 90
        4
176
     1
 62
     7
176
     1
 62
   257
176
     1
 90
        1
176
     1
 90
        1
176
     1
 40
1.0
176
     1
 90
       12
176
     1
 62
     7
176
     1
 40
1.0
176
     1
 90
        1
176
     1
 90
        6
176
     1
 90
        2
176
     1
 62
     7
176
     1
 90
        5
176
     1
 90
        0
176
     1
 90
        0
176
     1
290
     0
176
     1
 90
        1
176
     1
 40
0.0
176
     1
 90
        0
176
     1
290
     0
176
     1
290
     1
176
     1
290
     1
176
     1
290
     0
176
     1
290
     0
176
     1
290
     0
176
     1
290
     0
176
     1
290
     0
176
     1
290
     0
176
     1
 90
       50
176
     1
 40
0.0
176
     1
 40
1.0
176
     1
 90
        0
176
     1
 62
    18
420
        0
176
     1
 90
       50
176
     1
 90
        3
176
     1
 62
     5
420
      255
176
     1
290
     0
176
     1
 90
       50
176
     1
 90
       50
176
     1
 90
       50
176
     1
290
     0
176
     1
 90
       50
176
     1
 62
   256
176
     0
 40
1.0
176
     0
 90
        2
176
     1
  1
strokes_ogs.tif
176
     1
290
     0
176
     1
 40
1.0
176
     1
 40
1.0
176
     1
  0
VISUALSTYLE
  5
555
102
{ACAD_REACTORS
330
54F
102
}
330
54F
100
AcDbVisualStyle
  2
Wireframe
 70
     5
177
     3
291
     0
 70
    58
 90
        0
176
     1
 90
        2
176
     1
 90
        0
176
     1
 90
        0
176
     1
 40
0.6
176
     1
 40
30.0
176
     1
 62
     7
420
 16777215
176
     1
 90
        1
176
     1
 90
        4
176
     1
 62
     7
176
     1
 62
   257
176
     1
 90
        1
176
     1
 90
        1
176
     1
 40
1.0
176
     1
 90
        0
176
     1
 62
   257
176
     1
 40
1.0
176
     1
 90
        1
176
     1
 90
        6
176
     1
 90
        2
176
     1
 62
     7
176
     1
 90
        3
176
     1
 90
        0
176
     1
 90
        0
176
     1
290
     0
176
     1
 90
        1
176
     1
 40
0.0
176
     1
 90
        0
176
     1
290
     0
176
     1
290
     1
176
     1
290
     1
176
     1
290
     0
176
     1
290
     0
176
     1
290
     0
176
     1
290
     0
176
     1
290
     0
176
     1
290
     0
176
     1
 90
       50
176
     1
 40
0.0
176
     1
 40
1.0
176
     1
 90
        0
176
     1
 62
    18
420
        0
176
     1
 90
       50
176
     1
 90
        3
176
     1
 62
     5
420
      255
176
     1
290
     0
176
     1
 90
       50
176
     1
 90
       50
176
     1
 90
       50
176
     1
290
     0
176
     1
 90
       50
176
     1
 62
   256
176
     0
 40
1.0
176
     0
 90
        2
176
     1
  1
strokes_ogs.tif
176
     1
290
     0
176
     1
 40
1.0
176
     1
 40
1.0
176
     1
  0
VISUALSTYLE
  5
565
102
{ACAD_REACTORS
330
54F
102
}
330
54F
100
AcDbVisualStyle
  2
X-Ray
 70
    25
177
     3
291
     0
 70
    58
 90
        2
176
     1
 90
        2
176
     1
 90
        1
176
     1
 90
        1
176
     1
 40
0.5
176
     1
 40
30.0
176
     1
 62
     7
420
 16777215
176
     1
 90
        1
176
     1
 90
        0
176
     1
 62
     7
176
     1
 62
   257
176
     1
 90
        1
176
     1
 90
        1
176
     1
 40
1.0
176
     1
 90
        8
176
     1
 62
     7
176
     1
 40
1.0
176
     1
 90
        1
176
     1
 90
        6
176
     1
 90
        2
176
     1
 62
     7
176
     1
 90
        3
176
     1
 90
        0
176
     1
 90
        0
176
     1
290
     0
176
     1
 90
       13
176
     1
 40
0.0
176
     1
 90
        0
176
     1
290
     0
176
     1
290
     1
176
     1
290
     1
176
     1
290
     0
176
     1
290
     0
176
     1
290
     0
176
     1
290
     0
176
     1
290
     0
176
     1
290
     0
176
     1
 90
       50
176
     1
 40
0.0
176
     1
 40
1.0
176
     1
 90
        0
176
     1
 62
    18
420
        0
176
     1
 90
       50
176
     1
 90
        3
176
     1
 62
     5
420
      255
176
     1
290
     0
176
     1
 90
       50
176
     1
 90
       50
176
     1
 90
       50
176
     1
290
     0
176
     1
 90
       50
176
     1
 62
   256
176
     0
 40
1.0
176
     0
 90
        2
176
     1
  1
strokes_ogs.tif
176
     1
290
     0
176
     1
 40
1.0
176
     1
 40
1.0
176
     1
  0
DICTIONARYVAR
  5
672
102
{ACAD_REACTORS
330
671
102
}
330
671
100
DictionaryVariables
280
     0
  1
1:1
  0
DICTIONARYVAR
  5
677
102
{ACAD_REACTORS
330
671
102
}
330
671
100
DictionaryVariables
280
     0
  1
Standard
  0
DICTIONARYVAR
  5
676
102
{ACAD_REACTORS
330
671
102
}
330
671
100
DictionaryVariables
280
     0
  1
Standard
  0
XRECORD
  5
596
102
{ACAD_REACTORS
330
594
102
}
330
594
100
AcDbXrecord
280
     1
1000
#ffffff
  0
XRECORD
  5
597
102
{ACAD_REACTORS
330
594
102
}
330
594
100
AcDbXrecord
280
     1
1000
FullColor
  0
XRECORD
  5
598
102
{ACAD_REACTORS
330
594
102
}
330
594
100
AcDbXrecord
280
     1
290
     1
  0
XRECORD
  5
599
102
{ACAD_REACTORS
330
594
102
}
330
594
100
AcDbXrecord
280
     1
290
     1
  0
XRECORD
  5
59A
102
{ACAD_REACTORS
330
594
102
}
330
594
100
AcDbXrecord
280
     1
290
     1
  0
XRECORD
  5
59B
102
{ACAD_REACTORS
330
594
102
}
330
594
100
AcDbXrecord
280
     1
290
     1
  0
XRECORD
  5
59C
102
{ACAD_REACTORS
330
594
102
}
330
594
100
AcDbXrecord
280
     1
1000
auto
  0
XRECORD
  5
59D
102
{ACAD_REACTORS
330
594
102
}
330
594
100
AcDbXrecord
280
     1
1000
auto
  0
XRECORD
  5
59E
102
{ACAD_REACTORS
330
594
102
}
330
594
100
AcDbXrecord
280
     1
1000
auto
  0
XRECORD
  5
59F
102
{ACAD_REACTORS
330
594
102
}
330
594
100
AcDbXrecord
280
     1
1000
auto
  0
XRECORD
  5
5A0
102
{ACAD_REACTORS
330
594
102
}
330
594
100
AcDbXrecord
280
     1
1000
auto
  0
XRECORD
  5
5A1
102
{ACAD_REACTORS
330
594
102
}
330
594
100
AcDbXrecord
280
     1
1000
auto
  0
XRECORD
  5
5A2
102
{ACAD_REACTORS
330
594
102
}
330
594
100
AcDbXrecord
280
     1
1000
auto
  0
XRECORD
  5
5A3
102
{ACAD_REACTORS
330
594
102
}
330
594
100
AcDbXrecord
280
     1
1000
auto
  0
XRECORD
  5
5A4
102
{ACAD_REACTORS
330
594
102
}
330
594
100
AcDbXrecord
280
     1
290
     0
  0
XRECORD
  5
5A5
102
{ACAD_REACTORS
330
594
102
}
330
594
100
AcDbXrecord
280
     1
290
     0
  0
XRECORD
  5
5A6
102
{ACAD_REACTORS
330
594
102
}
330
594
100
AcDbXrecord
280
     1
290
     0
  0
XRECORD
  5
5A7
102
{ACAD_REACTORS
330
594
102
}
330
594
100
AcDbXrecord
280
     1
290
     0
  0
XRECORD
  5
5A8
102
{ACAD_REACTORS
330
594
102
}
330
594
100
AcDbXrecord
280
     1
 90
    65537
  0
XRECORD
  5
5A9
102
{ACAD_REACTORS
330
594
102
}
330
594
100
AcDbXrecord
280
     1
 90
    65537
  0
XRECORD
  5
5AA
102
{ACAD_REACTORS
330
594
102
}
330
594
100
AcDbXrecord
280
     1
 90
    65537
  0
XRECORD
  5
5AB
102
{ACAD_REACTORS
330
594
102
}
330
594
100
AcDbXrecord
280
     1
 90
    65537
  0
XRECORD
  5
5AC
102
{ACAD_REACTORS
330
594
102
}
330
594
100
AcDbXrecord
280
     1
1000
auto
  0
XRECORD
  5
5AD
102
{ACAD_REACTORS
330
594
102
}
330
594
100
AcDbXrecord
280
     1
1000
auto
  0
XRECORD
  5
5AE
102
{ACAD_REACTORS
330
594
102
}
330
594
100
AcDbXrecord
280
     1
1000
auto
  0
XRECORD
  5
5AF
102
{ACAD_REACTORS
330
594
102
}
330
594
100
AcDbXrecord
280
     1
1000
auto
  0
XRECORD
  5
5B0
102
{ACAD_REACTORS
330
594
102
}
330
594
100
AcDbXrecord
280
     1
1000
auto
  0
XRECORD
  5
5B1
102
{ACAD_REACTORS
330
594
102
}
330
594
100
AcDbXrecord
280
     1
1000
auto
  0
XRECORD
  5
5B2
102
{ACAD_REACTORS
330
594
102
}
330
594
100
AcDbXrecord
280
     1
1000
auto
  0
XRECORD
  5
5B3
102
{ACAD_REACTORS
330
594
102
}
330
594
100
AcDbXrecord
280
     1
1000
auto
  0
XRECORD
  5
5B4
102
{ACAD_REACTORS
330
594
102
}
330
594
100
AcDbXrecord
280
     1
 90
        1
  0
XRECORD
  5
5B5
102
{ACAD_REACTORS
330
594
102
}
330
594
100
AcDbXrecord
280
     1
 40
0.5
  0
XRECORD
  5
5B6
102
{ACAD_REACTORS
330
594
102
}
330
594
100
AcDbXrecord
280
     1
 40
0.5
  0
XRECORD
  5
5B7
102
{ACAD_REACTORS
330
594
102
}
330
594
100
AcDbXrecord
280
     1
 40
0.5
  0
XRECORD
  5
5B8
102
{ACAD_REACTORS
330
594
102
}
330
594
100
AcDbXrecord
280
     1
 40
0.5
  0
XRECORD
  5
5B9
102
{ACAD_REACTORS
330
594
102
}
330
594
100
AcDbXrecord
280
     1
290
     0
  0
XRECORD
  5
5BA
102
{ACAD_REACTORS
330
594
102
}
330
594
100
AcDbXrecord
280
     1
 90
        1
  0
XRECORD
  5
5BB
102
{ACAD_REACTORS
330
594
102
}
330
594
100
AcDbXrecord
280
     1
 40
0.0
  0
XRECORD
  5
5BC
102
{ACAD_REACTORS
330
594
102
}
330
594
100
AcDbXrecord
280
     1
 40
0.0
  0
XRECORD
  5
5BD
102
{ACAD_REACTORS
330
594
102
}
330
594
100
AcDbXrecord
280
     1
1000
Landscape
  0
XRECORD
  5
5BE
102
{ACAD_REACTORS
330
594
102
}
330
594
100
AcDbXrecord
280
     1
 40
17.0
  0
XRECORD
  5
5BF
102
{ACAD_REACTORS
330
594
102
}
330
594
100
AcDbXrecord
280
     1
 40
11.0
  0
XRECORD
  5
5C0
102
{ACAD_REACTORS
330
594
102
}
330
594
100
AcDbXrecord
280
     1
1000
1" = 1"
  0
XRECORD
  5
5C1
102
{ACAD_REACTORS
330
594
102
}
330
594
100
AcDbXrecord
280
     1
290
     1
  0
XRECORD
  5
5C2
102
{ACAD_REACTORS
330
594
102
}
330
594
100
AcDbXrecord
280
     1
290
     0
  0
XRECORD
  5
5C3
102
{ACAD_REACTORS
330
594
102
}
330
594
100
AcDbXrecord
280
     1
1000
Inside
  0
XRECORD
  5
5C4
102
{ACAD_REACTORS
330
594
102
}
330
594
100
AcDbXrecord
280
     1
1000
Arial,10,-1,5,50,0,0,0,0,0
  0
XRECORD
  5
5C5
102
{ACAD_REACTORS
330
594
102
}
330
594
100
AcDbXrecord
280
     1
1000
TopLeft
  0
XRECORD
  5
5C6
102
{ACAD_REACTORS
330
594
102
}
330
594
100
AcDbXrecord
280
     1
1000
3.22.0
  0
XRECORD
  5
5C7
102
{ACAD_REACTORS
330
594
102
}
330
594
100
AcDbXrecord
280
     1
 90
        1
  0
XRECORD
  5
5C8
102
{ACAD_REACTORS
330
594
102
}
330
594
100
AcDbXrecord
280
     1
 90
        1
  0
XRECORD
  5
5C9
102
{ACAD_REACTORS
330
594
102
}
330
594
100
AcDbXrecord
280
     1
  0
XRECORD
  5
5CA
102
{ACAD_REACTORS
330
594
102
}
330
594
100
AcDbXrecord
280
     1
 40
249.3463356973995
  0
XRECORD
  5
5CB
102
{ACAD_REACTORS
330
594
102
}
330
594
100
AcDbXrecord
280
     1
 40
496.7111111111111
  0
DICTIONARY
  5
673
330
58F
100
AcDbDictionary
280
     1
281
     1
  3
ACAD_ROUNDTRIP_2008_TABLESTYLE_CELLSTYLEMAP
360
674
  0
CELLSTYLEMAP
  5
674
102
{ACAD_REACTORS
330
673
102
}
330
673
100
AcDbCellStyleMap
 90
        3
300
CELLSTYLE
  1
TABLEFORMAT_BEGIN
 90
        5
170
     1
 91
        0
 92
    32768
 62
   257
 93
        1
300
CONTENTFORMAT
  1
CONTENTFORMAT_BEGIN
 90
        0
 91
        0
 92
        4
 93
        0
300

 40
0.0
140
1.0
 94
        5
 62
     0
340
537
144
0.25
309
CONTENTFORMAT_END
171
     1
301
MARGIN
  1
CELLMARGIN_BEGIN
 40
0.06
 40
0.06
 40
0.06
 40
0.06
 40
0.06
 40
0.06
309
CELLMARGIN_END
 94
        6
 95
        1
302
GRIDFORMAT
  1
GRIDFORMAT_BEGIN
 90
        0
 91
        1
 62
     0
 92
       -2
340
539
 93
        0
 40
0.045
309
GRIDFORMAT_END
 95
        2
302
GRIDFORMAT
  1
GRIDFORMAT_BEGIN
 90
        0
 91
        1
 62
     0
 92
       -2
340
539
 93
        0
 40
0.045
309
GRIDFORMAT_END
 95
        4
302
GRIDFORMAT
  1
GRIDFORMAT_BEGIN
 90
        0
 91
        1
 62
     0
 92
       -2
340
539
 93
        0
 40
0.045
309
GRIDFORMAT_END
 95
        8
302
GRIDFORMAT
  1
GRIDFORMAT_BEGIN
 90
        0
 91
        1
 62
     0
 92
       -2
340
539
 93
        0
 40
0.045
309
GRIDFORMAT_END
 95
       16
302
GRIDFORMAT
  1
GRIDFORMAT_BEGIN
 90
        0
 91
        1
 62
     0
 92
       -2
340
539
 93
        0
 40
0.045
309
GRIDFORMAT_END
 95
       32
302
GRIDFORMAT
  1
GRIDFORMAT_BEGIN
 90
        0
 91
        1
 62
     0
 92
       -2
340
539
 93
        0
 40
0.045
309
GRIDFORMAT_END
309
TABLEFORMAT_END
  1
CELLSTYLE_BEGIN
 90
        1
 91
        1
300
_TITLE
309
CELLSTYLE_END
300
CELLSTYLE
  1
TABLEFORMAT_BEGIN
 90
        5
170
     1
 91
        0
 92
        0
 62
   257
 93
        1
300
CONTENTFORMAT
  1
CONTENTFORMAT_BEGIN
 90
        0
 91
        0
 92
        4
 93
        0
300

 40
0.0
140
1.0
 94
        5
 62
     0
340
537
144
0.18
309
CONTENTFORMAT_END
171
     1
301
MARGIN
  1
CELLMARGIN_BEGIN
 40
0.06
 40
0.06
 40
0.06
 40
0.06
 40
0.06
 40
0.06
309
CELLMARGIN_END
 94
        6
 95
        1
302
GRIDFORMAT
  1
GRIDFORMAT_BEGIN
 90
        0
 91
        1
 62
     0
 92
       -2
340
539
 93
        0
 40
0.045
309
GRIDFORMAT_END
 95
        2
302
GRIDFORMAT
  1
GRIDFORMAT_BEGIN
 90
        0
 91
        1
 62
     0
 92
       -2
340
539
 93
        0
 40
0.045
309
GRIDFORMAT_END
 95
        4
302
GRIDFORMAT
  1
GRIDFORMAT_BEGIN
 90
        0
 91
        1
 62
     0
 92
       -2
340
539
 93
        0
 40
0.045
309
GRIDFORMAT_END
 95
        8
302
GRIDFORMAT
  1
GRIDFORMAT_BEGIN
 90
        0
 91
        1
 62
     0
 92
       -2
340
539
 93
        0
 40
0.045
309
GRIDFORMAT_END
 95
       16
302
GRIDFORMAT
  1
GRIDFORMAT_BEGIN
 90
        0
 91
        1
 62
     0
 92
       -2
340
539
 93
        0
 40
0.045
309
GRIDFORMAT_END
 95
       32
302
GRIDFORMAT
  1
GRIDFORMAT_BEGIN
 90
        0
 91
        1
 62
     0
 92
       -2
340
539
 93
        0
 40
0.045
309
GRIDFORMAT_END
309
TABLEFORMAT_END
  1
CELLSTYLE_BEGIN
 90
        2
 91
        1
300
_HEADER
309
CELLSTYLE_END
300
CELLSTYLE
  1
TABLEFORMAT_BEGIN
 90
        5
170
     1
 91
        0
 92
        0
 62
   257
 93
        1
300
CONTENTFORMAT
  1
CONTENTFORMAT_BEGIN
 90
        0
 91
        0
 92
        4
 93
        0
300

 40
0.0
140
1.0
 94
        2
 62
     0
340
537
144
0.18
309
CONTENTFORMAT_END
171
     1
301
MARGIN
  1
CELLMARGIN_BEGIN
 40
0.06
 40
0.06
 40
0.06
 40
0.06
 40
0.06
 40
0.06
309
CELLMARGIN_END
 94
        6
 95
        1
302
GRIDFORMAT
  1
GRIDFORMAT_BEGIN
 90
        0
 91
        1
 62
     0
 92
       -2
340
539
 93
        0
 40
0.045
309
GRIDFORMAT_END
 95
        2
302
GRIDFORMAT
  1
GRIDFORMAT_BEGIN
 90
        0
 91
        1
 62
     0
 92
       -2
340
539
 93
        0
 40
0.045
309
GRIDFORMAT_END
 95
        4
302
GRIDFORMAT
  1
GRIDFORMAT_BEGIN
 90
        0
 91
        1
 62
     0
 92
       -2
340
539
 93
        0
 40
0.045
309
GRIDFORMAT_END
 95
        8
302
GRIDFORMAT
  1
GRIDFORMAT_BEGIN
 90
        0
 91
        1
 62
     0
 92
       -2
340
539
 93
        0
 40
0.045
309
GRIDFORMAT_END
 95
       16
302
GRIDFORMAT
  1
GRIDFORMAT_BEGIN
 90
        0
 91
        1
 62
     0
 92
       -2
340
539
 93
        0
 40
0.045
309
GRIDFORMAT_END
 95
       32
302
GRIDFORMAT
  1
GRIDFORMAT_BEGIN
 90
        0
 91
        1
 62
     0
 92
       -2
340
539
 93
        0
 40
0.045
309
GRIDFORMAT_END
309
TABLEFORMAT_END
  1
CELLSTYLE_BEGIN
 90
        3
 91
        2
300
_DATA
309
CELLSTYLE_END
  0
ENDSEC
  0
EOF
