  0
SECTION
  2
HEADER
  9
$ACADVER
  1
AC1018
  9
$ACADMAINTVER
 70
   104
  9
$DWGCODEPAGE
  3
ANSI_1252
  9
$LASTSAVEDBY
  1
ANDREIPCC1
  9
$INSBASE
 10
0.0
 20
0.0
 30
0.0
  9
$EXTMIN
 10
1368.104233970256
 20
634.7734793080635
 30
-0.0000000000000058
  9
$EXTMAX
 10
1554.264820892566
 20
974.4268328132916
 30
0.0000000000000104
  9
$LIMMIN
 10
0.0
 20
0.0
  9
$LIMMAX
 10
420.0
 20
297.0
  9
$ORTHOMODE
 70
     0
  9
$REGENMODE
 70
     1
  9
$FILLMODE
 70
     1
  9
$QTEXTMODE
 70
     0
  9
$MIRRTEXT
 70
     0
  9
$LTSCALE
 40
1.0
  9
$ATTMODE
 70
     1
  9
$TEXTSIZE
 40
2.5
  9
$TRACEWID
 40
1.0
  9
$TEXTSTYLE
  7
Standard
  9
$CLAYER
  8
puncte
  9
$CELTYPE
  6
ByLayer
  9
$CECOLOR
 62
   256
  9
$CELTSCALE
 40
1.0
  9
$DISPSILH
 70
     0
  9
$DIMSCALE
 40
1.0
  9
$DIMASZ
 40
2.5
  9
$DIMEXO
 40
0.625
  9
$DIMDLI
 40
3.75
  9
$DIMRND
 40
0.0
  9
$DIMDLE
 40
0.0
  9
$DIMEXE
 40
1.25
  9
$DIMTP
 40
0.0
  9
$DIMTM
 40
0.0
  9
$DIMTXT
 40
9.0
  9
$DIMCEN
 40
2.5
  9
$DIMTSZ
 40
0.0
  9
$DIMTOL
 70
     0
  9
$DIMLIM
 70
     0
  9
$DIMTIH
 70
     0
  9
$DIMTOH
 70
     0
  9
$DIMSE1
 70
     0
  9
$DIMSE2
 70
     0
  9
$DIMTAD
 70
     1
  9
$DIMZIN
 70
     8
  9
$DIMBLK
  1

  9
$DIMASO
 70
     1
  9
$DIMSHO
 70
     1
  9
$DIMPOST
  1

  9
$DIMAPOST
  1

  9
$DIMALT
 70
     0
  9
$DIMALTD
 70
     3
  9
$DIMALTF
 40
0.03937007874016
  9
$DIMLFAC
 40
1.0
  9
$DIMTOFL
 70
     1
  9
$DIMTVP
 40
0.0
  9
$DIMTIX
 70
     0
  9
$DIMSOXD
 70
     0
  9
$DIMSAH
 70
     0
  9
$DIMBLK1
  1

  9
$DIMBLK2
  1

  9
$DIMSTYLE
  2
ISO-25
  9
$DIMCLRD
 70
     0
  9
$DIMCLRE
 70
     0
  9
$DIMCLRT
 70
     0
  9
$DIMTFAC
 40
1.0
  9
$DIMGAP
 40
0.625
  9
$DIMJUST
 70
     0
  9
$DIMSD1
 70
     0
  9
$DIMSD2
 70
     0
  9
$DIMTOLJ
 70
     0
  9
$DIMTZIN
 70
     8
  9
$DIMALTZ
 70
     0
  9
$DIMALTTZ
 70
     0
  9
$DIMUPT
 70
     0
  9
$DIMDEC
 70
     2
  9
$DIMTDEC
 70
     2
  9
$DIMALTU
 70
     2
  9
$DIMALTTD
 70
     3
  9
$DIMTXSTY
  7
Standard
  9
$DIMAUNIT
 70
     0
  9
$DIMADEC
 70
     0
  9
$DIMALTRND
 40
0.0
  9
$DIMAZIN
 70
     0
  9
$DIMDSEP
 70
    44
  9
$DIMATFIT
 70
     3
  9
$DIMFRAC
 70
     0
  9
$DIMLDRBLK
  1

  9
$DIMLUNIT
 70
     2
  9
$DIMLWD
 70
    -2
  9
$DIMLWE
 70
    -2
  9
$DIMTMOVE
 70
     0
  9
$LUNITS
 70
     2
  9
$LUPREC
 70
     2
  9
$SKETCHINC
 40
1.0
  9
$FILLETRAD
 40
0.0
  9
$AUNITS
 70
     0
  9
$AUPREC
 70
     0
  9
$MENU
  1
.
  9
$ELEVATION
 40
0.0
  9
$PELEVATION
 40
0.0
  9
$THICKNESS
 40
0.0
  9
$LIMCHECK
 70
     0
  9
$CHAMFERA
 40
0.0
  9
$CHAMFERB
 40
0.0
  9
$CHAMFERC
 40
0.0
  9
$CHAMFERD
 40
0.0
  9
$SKPOLY
 70
     0
  9
$TDCREATE
 40
2455679.004440278
  9
$TDUCREATE
 40
2455678.879440278
  9
$TDUPDATE
 40
2455681.784301389
  9
$TDUUPDATE
 40
2455681.659301389
  9
$TDINDWG
 40
0.0629405440
  9
$TDUSRTIMER
 40
0.0629394560
  9
$USRTIMER
 70
     1
  9
$ANGBASE
 50
0.0
  9
$ANGDIR
 70
     0
  9
$PDMODE
 70
     0
  9
$PDSIZE
 40
0.0
  9
$PLINEWID
 40
0.0
  9
$SPLFRAME
 70
     0
  9
$SPLINETYPE
 70
     6
  9
$SPLINESEGS
 70
     8
  9
$HANDSEED
  5
4AF
  9
$SURFTAB1
 70
     6
  9
$SURFTAB2
 70
     6
  9
$SURFTYPE
 70
     6
  9
$SURFU
 70
     6
  9
$SURFV
 70
     6
  9
$UCSBASE
  2

  9
$UCSNAME
  2

  9
$UCSORG
 10
0.0
 20
0.0
 30
0.0
  9
$UCSXDIR
 10
1.0
 20
0.0
 30
0.0
  9
$UCSYDIR
 10
0.0
 20
1.0
 30
0.0
  9
$UCSORTHOREF
  2

  9
$UCSORTHOVIEW
 70
     0
  9
$UCSORGTOP
 10
0.0
 20
0.0
 30
0.0
  9
$UCSORGBOTTOM
 10
0.0
 20
0.0
 30
0.0
  9
$UCSORGLEFT
 10
0.0
 20
0.0
 30
0.0
  9
$UCSORGRIGHT
 10
0.0
 20
0.0
 30
0.0
  9
$UCSORGFRONT
 10
0.0
 20
0.0
 30
0.0
  9
$UCSORGBACK
 10
0.0
 20
0.0
 30
0.0
  9
$PUCSBASE
  2

  9
$PUCSNAME
  2

  9
$PUCSORG
 10
0.0
 20
0.0
 30
0.0
  9
$PUCSXDIR
 10
1.0
 20
0.0
 30
0.0
  9
$PUCSYDIR
 10
0.0
 20
1.0
 30
0.0
  9
$PUCSORTHOREF
  2

  9
$PUCSORTHOVIEW
 70
     0
  9
$PUCSORGTOP
 10
0.0
 20
0.0
 30
0.0
  9
$PUCSORGBOTTOM
 10
0.0
 20
0.0
 30
0.0
  9
$PUCSORGLEFT
 10
0.0
 20
0.0
 30
0.0
  9
$PUCSORGRIGHT
 10
0.0
 20
0.0
 30
0.0
  9
$PUCSORGFRONT
 10
0.0
 20
0.0
 30
0.0
  9
$PUCSORGBACK
 10
0.0
 20
0.0
 30
0.0
  9
$USERI1
 70
     0
  9
$USERI2
 70
     0
  9
$USERI3
 70
     0
  9
$USERI4
 70
     0
  9
$USERI5
 70
     0
  9
$USERR1
 40
0.0
  9
$USERR2
 40
0.0
  9
$USERR3
 40
0.0
  9
$USERR4
 40
0.0
  9
$USERR5
 40
0.0
  9
$WORLDVIEW
 70
     1
  9
$SHADEDGE
 70
     3
  9
$SHADEDIF
 70
    70
  9
$TILEMODE
 70
     1
  9
$MAXACTVP
 70
    64
  9
$PINSBASE
 10
0.0
 20
0.0
 30
0.0
  9
$PLIMCHECK
 70
     0
  9
$PEXTMIN
 10
0.0
 20
0.0
 30
0.0
  9
$PEXTMAX
 10
0.0
 20
0.0
 30
0.0
  9
$PLIMMIN
 10
0.0
 20
0.0
  9
$PLIMMAX
 10
12.0
 20
9.0
  9
$UNITMODE
 70
     0
  9
$VISRETAIN
 70
     1
  9
$PLINEGEN
 70
     0
  9
$PSLTSCALE
 70
     1
  9
$TREEDEPTH
 70
  3020
  9
$CMLSTYLE
  2
Standard
  9
$CMLJUST
 70
     0
  9
$CMLSCALE
 40
20.0
  9
$PROXYGRAPHICS
 70
     1
  9
$MEASUREMENT
 70
     1
  9
$CELWEIGHT
370
    -1
  9
$ENDCAPS
280
     0
  9
$JOINSTYLE
280
     0
  9
$LWDISPLAY
290
     0
  9
$INSUNITS
 70
     4
  9
$HYPERLINKBASE
  1

  9
$STYLESHEET
  1

  9
$XEDIT
290
     1
  9
$CEPSNTYPE
380
     0
  9
$PSTYLEMODE
290
     1
  9
$FINGERPRINTGUID
  2
{AF593A86-85E2-4869-8437-F29562BD6E44}
  9
$VERSIONGUID
  2
{E073D5AE-68CE-4AAB-8C13-43F570C1D2E8}
  9
$EXTNAMES
290
     1
  9
$PSVPSCALE
 40
0.0
  9
$OLESTARTUP
290
     0
  9
$SORTENTS
280
   127
  9
$INDEXCTL
280
     0
  9
$HIDETEXT
280
     1
  9
$XCLIPFRAME
290
     0
  9
$HALOGAP
280
     0
  9
$OBSCOLOR
 70
   257
  9
$OBSLTYPE
280
     0
  9
$INTERSECTIONDISPLAY
280
     0
  9
$INTERSECTIONCOLOR
 70
   257
  9
$DIMASSOC
280
     2
  9
$PROJECTNAME
  1

  0
ENDSEC
  0
SECTION
  2
CLASSES
  0
CLASS
  1
ACDBDICTIONARYWDFLT
  2
AcDbDictionaryWithDefault
  3
ObjectDBX Classes
 90
        0
 91
        1
280
     0
281
     0
  0
CLASS
  1
DICTIONARYVAR
  2
AcDbDictionaryVar
  3
ObjectDBX Classes
 90
        0
 91
        5
280
     0
281
     0
  0
CLASS
  1
TABLESTYLE
  2
AcDbTableStyle
  3
ObjectDBX Classes
 90
     4095
 91
        1
280
     0
281
     0
  0
CLASS
  1
MATERIAL
  2
AcDbMaterial
  3
ObjectDBX Classes
 90
     1024
 91
        3
280
     0
281
     0
  0
CLASS
  1
VISUALSTYLE
  2
AcDbVisualStyle
  3
ObjectDBX Classes
 90
     4095
 91
       16
280
     0
281
     0
  0
CLASS
  1
IMAGEDEF
  2
AcDbRasterImageDef
  3
ISM
 90
        0
 91
        2
280
     0
281
     0
  0
CLASS
  1
RASTERVARIABLES
  2
AcDbRasterVariables
  3
ISM
 90
        0
 91
        1
280
     0
281
     0
  0
CLASS
  1
IMAGEDEF_REACTOR
  2
AcDbRasterImageDefReactor
  3
ISM
 90
        1
 91
        1
280
     0
281
     0
  0
CLASS
  1
IMAGE
  2
AcDbRasterImage
  3
ISM
 90
     2175
 91
        1
280
     0
281
     1
  0
CLASS
  1
DIMASSOC
  2
AcDbDimAssoc
  3
"AcDbDimAssoc|Product Desc:     AcDim ARX App For Dimension|Company:          Autodesk, Inc.|WEB Address:      www.autodesk.com"
 90
        0
 91
        5
280
     0
281
     0
  0
ENDSEC
  0
SECTION
  2
TABLES
  0
TABLE
  2
VPORT
  5
8
330
0
100
AcDbSymbolTable
 70
     1
  0
VPORT
  5
EA
330
8
100
AcDbSymbolTableRecord
100
AcDbViewportTableRecord
  2
*Active
 70
     0
 10
0.0
 20
0.0
 11
1.0
 21
1.0
 12
1461.184527431411
 22
804.6001560606775
 13
0.0
 23
0.0
 14
10.0
 24
10.0
 15
10.0
 25
10.0
 16
0.0
 26
0.0
 36
1.0
 17
0.0
 27
0.0
 37
0.0
 40
344.2640325120865
 41
2.133786848072562
 42
50.0
 43
0.0
 44
0.0
 50
0.0
 51
0.0
 71
     0
 72
  1000
 73
     1
 74
     3
 75
     0
 76
     0
 77
     0
 78
     0
281
     0
 65
     1
110
0.0
120
0.0
130
0.0
111
1.0
121
0.0
131
0.0
112
0.0
122
1.0
132
0.0
 79
     0
146
0.0
  0
ENDTAB
  0
TABLE
  2
LTYPE
  5
5
330
0
100
AcDbSymbolTable
 70
     1
  0
LTYPE
  5
14
330
5
100
AcDbSymbolTableRecord
100
AcDbLinetypeTableRecord
  2
ByBlock
 70
     0
  3

 72
    65
 73
     0
 40
0.0
  0
LTYPE
  5
15
330
5
100
AcDbSymbolTableRecord
100
AcDbLinetypeTableRecord
  2
ByLayer
 70
     0
  3

 72
    65
 73
     0
 40
0.0
  0
LTYPE
  5
16
330
5
100
AcDbSymbolTableRecord
100
AcDbLinetypeTableRecord
  2
Continuous
 70
     0
  3
Solid line
 72
    65
 73
     0
 40
0.0
  0
ENDTAB
  0
TABLE
  2
LAYER
  5
2
102
{ACAD_XDICTIONARY
360
142
102
}
330
0
100
AcDbSymbolTable
 70
     6
  0
LAYER
  5
10
330
2
100
AcDbSymbolTableRecord
100
AcDbLayerTableRecord
  2
0
 70
     0
 62
     7
  6
Continuous
290
     0
370
    -3
390
F
  0
LAYER
  5
126
330
2
100
AcDbSymbolTableRecord
100
AcDbLayerTableRecord
  2
Defpoints
 70
     0
 62
     7
  6
Continuous
290
     0
370
    -3
390
F
  0
LAYER
  5
2F3
330
2
100
AcDbSymbolTableRecord
100
AcDbLayerTableRecord
  2
cote
 70
     0
 62
     7
  6
Continuous
290
     0
370
    -3
390
F
1001
AcAecLayerStandard
1000

1000

  0
LAYER
  5
3B6
330
2
100
AcDbSymbolTableRecord
100
AcDbLayerTableRecord
  2
puncte
 70
     0
 62
     7
  6
Continuous
370
    -3
390
F
1001
AcAecLayerStandard
1000

1000

  0
ENDTAB
  0
TABLE
  2
STYLE
  5
3
330
0
100
AcDbSymbolTable
 70
     1
  0
STYLE
  5
11
330
3
100
AcDbSymbolTableRecord
100
AcDbTextStyleTableRecord
  2
Standard
 70
     0
 40
0.0
 41
1.0
 50
0.0
 71
     0
 42
2.5
  3
txt
  4

  0
ENDTAB
  0
TABLE
  2
VIEW
  5
6
330
0
100
AcDbSymbolTable
 70
     0
  0
ENDTAB
  0
TABLE
  2
UCS
  5
7
330
0
100
AcDbSymbolTable
 70
     0
  0
ENDTAB
  0
TABLE
  2
APPID
  5
9
330
0
100
AcDbSymbolTable
 70
     4
  0
APPID
  5
12
330
9
100
AcDbSymbolTableRecord
100
AcDbRegAppTableRecord
  2
ACAD
 70
     0
  0
APPID
  5
9E
330
9
100
AcDbSymbolTableRecord
100
AcDbRegAppTableRecord
  2
ACAD_PSEXT
 70
     0
  0
APPID
  5
111
330
9
100
AcDbSymbolTableRecord
100
AcDbRegAppTableRecord
  2
ACAD_EXEMPT_FROM_CAD_STANDARDS
 70
     0
  0
APPID
  5
141
330
9
100
AcDbSymbolTableRecord
100
AcDbRegAppTableRecord
  2
AcAecLayerStandard
 70
     0
  0
ENDTAB
  0
TABLE
  2
DIMSTYLE
  5
A
330
0
100
AcDbSymbolTable
 70
     1
100
AcDbDimStyleTable
 71
     1
340
27
  0
DIMSTYLE
105
27
330
A
100
AcDbSymbolTableRecord
100
AcDbDimStyleTableRecord
  2
ISO-25
 70
     0
 41
2.5
 42
0.625
 43
3.75
 44
1.25
 73
     0
 74
     0
 77
     1
 78
     8
140
9.0
141
2.5
143
0.03937007874016
147
0.625
171
     3
172
     1
271
     2
272
     2
274
     3
278
    44
283
     0
284
     8
340
11
  0
ENDTAB
  0
TABLE
  2
BLOCK_RECORD
  5
1
330
0
100
AcDbSymbolTable
 70
     8
  0
BLOCK_RECORD
  5
1F
330
1
100
AcDbSymbolTableRecord
100
AcDbBlockTableRecord
  2
*Model_Space
340
22
  0
BLOCK_RECORD
  5
D2
330
1
100
AcDbSymbolTableRecord
100
AcDbBlockTableRecord
  2
*Paper_Space
340
D3
  0
BLOCK_RECORD
  5
D6
330
1
100
AcDbSymbolTableRecord
100
AcDbBlockTableRecord
  2
*Paper_Space0
340
D7
  0
BLOCK_RECORD
  5
165
330
1
100
AcDbSymbolTableRecord
100
AcDbBlockTableRecord
  2
*D1
340
0
  0
BLOCK_RECORD
  5
193
330
1
100
AcDbSymbolTableRecord
100
AcDbBlockTableRecord
  2
*D2
340
0
  0
BLOCK_RECORD
  5
1AB
330
1
100
AcDbSymbolTableRecord
100
AcDbBlockTableRecord
  2
*D3
340
0
  0
BLOCK_RECORD
  5
314
330
1
100
AcDbSymbolTableRecord
100
AcDbBlockTableRecord
  2
*D4
340
0
  0
BLOCK_RECORD
  5
358
330
1
100
AcDbSymbolTableRecord
100
AcDbBlockTableRecord
  2
*D5
340
0
  0
BLOCK_RECORD
  5
370
330
1
100
AcDbSymbolTableRecord
100
AcDbBlockTableRecord
  2
*D6
340
0
  0
BLOCK_RECORD
  5
388
330
1
100
AcDbSymbolTableRecord
100
AcDbBlockTableRecord
  2
*D7
340
0
  0
ENDTAB
  0
ENDSEC
  0
SECTION
  2
BLOCKS
  0
BLOCK
  5
20
330
1F
100
AcDbEntity
  8
0
100
AcDbBlockBegin
  2
*Model_Space
 70
     0
 10
0.0
 20
0.0
 30
0.0
  3
*Model_Space
  1

  0
ENDBLK
  5
21
330
1F
100
AcDbEntity
  8
0
100
AcDbBlockEnd
  0
BLOCK
  5
D4
330
D2
100
AcDbEntity
 67
     1
  8
0
100
AcDbBlockBegin
  2
*Paper_Space
 70
     0
 10
0.0
 20
0.0
 30
0.0
  3
*Paper_Space
  1

  0
ENDBLK
  5
D5
330
D2
100
AcDbEntity
 67
     1
  8
0
100
AcDbBlockEnd
  0
BLOCK
  5
D8
330
D6
100
AcDbEntity
 67
     1
  8
0
100
AcDbBlockBegin
  2
*Paper_Space0
 70
     0
 10
0.0
 20
0.0
 30
0.0
  3
*Paper_Space0
  1

  0
ENDBLK
  5
D9
330
D6
100
AcDbEntity
 67
     1
  8
0
100
AcDbBlockEnd
  0
BLOCK
  5
16F
330
165
100
AcDbEntity
  8
0
100
AcDbBlockBegin
  2
*D1
 70
     1
 10
0.0
 20
0.0
 30
0.0
  3
*D1
  1

  0
LINE
  5
32F
330
165
100
AcDbEntity
  8
cote
 62
     0
370
    -2
100
AcDbLine
 10
1569.630333287611
 20
1028.413262142317
 30
0.0
 11
1606.726551468339
 21
1028.413262142317
 31
0.0
  0
LINE
  5
330
330
165
100
AcDbEntity
  8
cote
 62
     0
370
    -2
100
AcDbLine
 10
1569.630333287611
 20
623.551744515209
 30
0.0
 11
1606.726551468339
 21
623.551744515209
 31
0.0
  0
LINE
  5
331
330
165
100
AcDbEntity
  8
cote
 62
     0
370
    -2
100
AcDbLine
 10
1605.476551468339
 20
1025.913262142317
 30
0.0
 11
1605.476551468339
 21
626.051744515209
 31
0.0
  0
SOLID
  5
332
330
165
100
AcDbEntity
  8
cote
 62
     0
100
AcDbTrace
 10
1605.059884801672
 20
1025.913262142317
 30
0.0
 11
1605.893218135006
 21
1025.913262142317
 31
0.0
 12
1605.476551468339
 22
1028.413262142317
 32
0.0
 13
1605.476551468339
 23
1028.413262142317
 33
0.0
  0
SOLID
  5
333
330
165
100
AcDbEntity
  8
cote
 62
     0
100
AcDbTrace
 10
1605.059884801672
 20
626.051744515209
 30
0.0
 11
1605.893218135006
 21
626.051744515209
 31
0.0
 12
1605.476551468339
 22
623.551744515209
 32
0.0
 13
1605.476551468339
 23
623.551744515209
 33
0.0
  0
MTEXT
  5
334
330
165
100
AcDbEntity
  8
cote
 62
     0
100
AcDbMText
 10
1599.601551468339
 20
825.9825033287633
 30
0.0
 40
9.0
 41
0.0
 71
     5
 72
     1
  1
404,86
 11
0.0000000000000001
 21
1.0
 31
0.0
 73
     1
 44
1.0
  0
POINT
  5
335
330
165
100
AcDbEntity
  8
Defpoints
 62
     0
100
AcDbPoint
 10
1569.005333287611
 20
1028.413262142317
 30
0.0
  0
POINT
  5
336
330
165
100
AcDbEntity
  8
Defpoints
 62
     0
100
AcDbPoint
 10
1569.005333287611
 20
623.551744515209
 30
0.0
  0
POINT
  5
337
330
165
100
AcDbEntity
  8
Defpoints
 62
     0
100
AcDbPoint
 10
1605.476551468339
 20
623.551744515209
 30
0.0
  0
ENDBLK
  5
170
330
165
100
AcDbEntity
  8
0
100
AcDbBlockEnd
  0
BLOCK
  5
19D
330
193
100
AcDbEntity
  8
0
100
AcDbBlockBegin
  2
*D2
 70
     1
 10
0.0
 20
0.0
 30
0.0
  3
*D2
  1

  0
LINE
  5
338
330
193
100
AcDbEntity
  8
cote
 62
     0
370
    -2
100
AcDbLine
 10
1312.730886028156
 20
1066.273408485701
 30
0.0
 11
1330.959368999257
 21
1066.273408485701
 31
0.0
  0
LINE
  5
339
330
193
100
AcDbEntity
  8
cote
 62
     0
370
    -2
100
AcDbLine
 10
1312.730886028156
 20
766.2734084857011
 30
0.0
 11
1330.959368999257
 21
766.2734084857011
 31
0.0
  0
LINE
  5
33A
330
193
100
AcDbEntity
  8
cote
 62
     0
370
    -2
100
AcDbLine
 10
1329.709368999256
 20
1063.773408485701
 30
0.0
 11
1329.709368999256
 21
768.7734084857011
 31
0.0
  0
SOLID
  5
33B
330
193
100
AcDbEntity
  8
cote
 62
     0
100
AcDbTrace
 10
1329.29270233259
 20
1063.773408485701
 30
0.0
 11
1330.126035665923
 21
1063.773408485701
 31
0.0
 12
1329.709368999256
 22
1066.273408485701
 32
0.0
 13
1329.709368999256
 23
1066.273408485701
 33
0.0
  0
SOLID
  5
33C
330
193
100
AcDbEntity
  8
cote
 62
     0
100
AcDbTrace
 10
1329.29270233259
 20
768.7734084857011
 30
0.0
 11
1330.126035665923
 21
768.7734084857011
 31
0.0
 12
1329.709368999256
 22
766.2734084857011
 32
0.0
 13
1329.709368999256
 23
766.2734084857011
 33
0.0
  0
MTEXT
  5
33D
330
193
100
AcDbEntity
  8
cote
 62
     0
100
AcDbMText
 10
1324.584368999256
 20
916.2734084857012
 30
0.0
 40
9.0
 41
0.0
 71
     5
 72
     1
  1
300
 11
0.0000000000000001
 21
1.0
 31
0.0
 73
     1
 44
1.0
  0
POINT
  5
33E
330
193
100
AcDbEntity
  8
Defpoints
 62
     0
100
AcDbPoint
 10
1312.105886028156
 20
1066.273408485701
 30
0.0
  0
POINT
  5
33F
330
193
100
AcDbEntity
  8
Defpoints
 62
     0
100
AcDbPoint
 10
1312.105886028156
 20
766.2734084857011
 30
0.0
  0
POINT
  5
340
330
193
100
AcDbEntity
  8
Defpoints
 62
     0
100
AcDbPoint
 10
1329.709368999256
 20
766.2734084857011
 30
0.0
  0
ENDBLK
  5
19E
330
193
100
AcDbEntity
  8
0
100
AcDbBlockEnd
  0
BLOCK
  5
1B5
330
1AB
100
AcDbEntity
  8
0
100
AcDbBlockBegin
  2
*D3
 70
     1
 10
0.0
 20
0.0
 30
0.0
  3
*D3
  1

  0
LINE
  5
341
330
1AB
100
AcDbEntity
  8
cote
 62
     0
370
    -2
100
AcDbLine
 10
1569.005333287611
 20
622.926744515209
 30
0.0
 11
1569.005333287611
 21
597.7118644129244
 31
0.0
  0
LINE
  5
342
330
1AB
100
AcDbEntity
  8
cote
 62
     0
370
    -2
100
AcDbLine
 10
1346.513868645687
 20
622.926744515209
 30
0.0
 11
1346.513868645687
 21
597.7118644129244
 31
0.0
  0
LINE
  5
343
330
1AB
100
AcDbEntity
  8
cote
 62
     0
370
    -2
100
AcDbLine
 10
1566.505333287611
 20
598.9618644129244
 30
0.0
 11
1349.013868645686
 21
598.9618644129244
 31
0.0
  0
SOLID
  5
344
330
1AB
100
AcDbEntity
  8
cote
 62
     0
100
AcDbTrace
 10
1566.505333287611
 20
599.378531079591
 30
0.0
 11
1566.505333287611
 21
598.5451977462578
 31
0.0
 12
1569.005333287611
 22
598.9618644129244
 32
0.0
 13
1569.005333287611
 23
598.9618644129244
 33
0.0
  0
SOLID
  5
345
330
1AB
100
AcDbEntity
  8
cote
 62
     0
100
AcDbTrace
 10
1349.013868645686
 20
599.378531079591
 30
0.0
 11
1349.013868645686
 21
598.5451977462578
 31
0.0
 12
1346.513868645687
 22
598.9618644129244
 32
0.0
 13
1346.513868645687
 23
598.9618644129244
 33
0.0
  0
MTEXT
  5
346
330
1AB
100
AcDbEntity
  8
cote
 62
     0
100
AcDbMText
 10
1457.759600966648
 20
604.8368644129245
 30
0.0
 40
9.0
 41
0.0
 71
     5
 72
     1
  1
222,49
 73
     1
 44
1.0
  0
POINT
  5
347
330
1AB
100
AcDbEntity
  8
Defpoints
 62
     0
100
AcDbPoint
 10
1569.005333287611
 20
623.551744515209
 30
0.0
  0
POINT
  5
348
330
1AB
100
AcDbEntity
  8
Defpoints
 62
     0
100
AcDbPoint
 10
1346.513868645687
 20
623.551744515209
 30
0.0
  0
POINT
  5
349
330
1AB
100
AcDbEntity
  8
Defpoints
 62
     0
100
AcDbPoint
 10
1346.513868645687
 20
598.9618644129244
 30
0.0
  0
ENDBLK
  5
1B6
330
1AB
100
AcDbEntity
  8
0
100
AcDbBlockEnd
  0
BLOCK
  5
31E
330
314
100
AcDbEntity
  8
0
100
AcDbBlockBegin
  2
*D4
 70
     1
 10
0.0
 20
0.0
 30
0.0
  3
*D4
  1

  0
LINE
  5
34A
330
314
100
AcDbEntity
  8
cote
 62
     0
370
    -2
100
AcDbLine
 10
912.1058860281564
 20
765.6484084857011
 30
0.0
 11
912.1058860281564
 21
743.2180553230381
 31
0.0
  0
LINE
  5
34B
330
314
100
AcDbEntity
  8
cote
 62
     0
370
    -2
100
AcDbLine
 10
1312.105886028156
 20
765.6484084857011
 30
0.0
 11
1312.105886028156
 21
743.2180553230381
 31
0.0
  0
LINE
  5
34C
330
314
100
AcDbEntity
  8
cote
 62
     0
370
    -2
100
AcDbLine
 10
914.6058860281565
 20
744.4680553230381
 30
0.0
 11
1309.605886028156
 21
744.4680553230381
 31
0.0
  0
SOLID
  5
34D
330
314
100
AcDbEntity
  8
cote
 62
     0
100
AcDbTrace
 10
914.6058860281565
 20
744.8847219897047
 30
0.0
 11
914.6058860281565
 21
744.0513886563715
 31
0.0
 12
912.1058860281564
 22
744.4680553230381
 32
0.0
 13
912.1058860281564
 23
744.4680553230381
 33
0.0
  0
SOLID
  5
34E
330
314
100
AcDbEntity
  8
cote
 62
     0
100
AcDbTrace
 10
1309.605886028156
 20
744.8847219897047
 30
0.0
 11
1309.605886028156
 21
744.0513886563715
 31
0.0
 12
1312.105886028156
 22
744.4680553230381
 32
0.0
 13
1312.105886028156
 23
744.4680553230381
 33
0.0
  0
MTEXT
  5
34F
330
314
100
AcDbEntity
  8
cote
 62
     0
100
AcDbMText
 10
1112.105886028156
 20
749.5930553230381
 30
0.0
 40
9.0
 41
0.0
 71
     5
 72
     1
  1
400
 73
     1
 44
1.0
  0
POINT
  5
350
330
314
100
AcDbEntity
  8
Defpoints
 62
     0
100
AcDbPoint
 10
912.1058860281564
 20
766.2734084857011
 30
0.0
  0
POINT
  5
351
330
314
100
AcDbEntity
  8
Defpoints
 62
     0
100
AcDbPoint
 10
1312.105886028156
 20
766.2734084857011
 30
0.0
  0
POINT
  5
352
330
314
100
AcDbEntity
  8
Defpoints
 62
     0
100
AcDbPoint
 10
1312.105886028156
 20
744.4680553230381
 30
0.0
  0
ENDBLK
  5
31F
330
314
100
AcDbEntity
  8
0
100
AcDbBlockEnd
  0
BLOCK
  5
362
330
358
100
AcDbEntity
  8
0
100
AcDbBlockBegin
  2
*D5
 70
     1
 10
0.0
 20
0.0
 30
0.0
  3
*D5
  1

  0
LINE
  5
365
330
358
100
AcDbEntity
  8
cote
 62
     0
370
    -2
100
AcDbLine
 10
1501.620383905286
 20
977.5951843060399
 30
0.0
 11
1648.565260128762
 21
977.5951843060399
 31
0.0
  0
LINE
  5
366
330
358
100
AcDbEntity
  8
cote
 62
     0
370
    -2
100
AcDbLine
 10
1501.070023964832
 20
634.7921693103079
 30
0.0
 11
1648.565260128762
 21
634.7921693103079
 31
0.0
  0
LINE
  5
367
330
358
100
AcDbEntity
  8
cote
 62
     0
370
    -2
100
AcDbLine
 10
1647.315260128762
 20
975.0951843060398
 30
0.0
 11
1647.315260128762
 21
637.2921693103079
 31
0.0
  0
SOLID
  5
368
330
358
100
AcDbEntity
  8
cote
 62
     0
100
AcDbTrace
 10
1646.898593462095
 20
975.0951843060398
 30
0.0
 11
1647.731926795429
 21
975.0951843060398
 31
0.0
 12
1647.315260128762
 22
977.5951843060399
 32
0.0
 13
1647.315260128762
 23
977.5951843060399
 33
0.0
  0
SOLID
  5
369
330
358
100
AcDbEntity
  8
cote
 62
     0
100
AcDbTrace
 10
1646.898593462095
 20
637.2921693103079
 30
0.0
 11
1647.731926795429
 21
637.2921693103079
 31
0.0
 12
1647.315260128762
 22
634.7921693103079
 32
0.0
 13
1647.315260128762
 23
634.7921693103079
 33
0.0
  0
MTEXT
  5
36A
330
358
100
AcDbEntity
  8
cote
 62
     0
100
AcDbMText
 10
1641.440260128762
 20
806.1936768081741
 30
0.0
 40
9.0
 41
0.0
 71
     5
 72
     1
  1
342,8
 11
0.0000000000000001
 21
1.0
 31
0.0
 73
     1
 44
1.0
  0
POINT
  5
36B
330
358
100
AcDbEntity
  8
Defpoints
 62
     0
100
AcDbPoint
 10
1500.995383905286
 20
977.5951843060399
 30
0.0
  0
POINT
  5
36C
330
358
100
AcDbEntity
  8
Defpoints
 62
     0
100
AcDbPoint
 10
1500.445023964832
 20
634.7921693103079
 30
0.0
  0
POINT
  5
36D
330
358
100
AcDbEntity
  8
Defpoints
 62
     0
100
AcDbPoint
 10
1647.315260128762
 20
634.7921693103079
 30
0.0
  0
ENDBLK
  5
363
330
358
100
AcDbEntity
  8
0
100
AcDbBlockEnd
  0
BLOCK
  5
37A
330
370
100
AcDbEntity
  8
0
100
AcDbBlockBegin
  2
*D6
 70
     1
 10
0.0
 20
0.0
 30
0.0
  3
*D6
  1

  0
LINE
  5
37D
330
370
100
AcDbEntity
  8
cote
 62
     0
370
    -2
100
AcDbLine
 10
1382.803090150457
 20
634.1671693103079
 30
0.0
 11
1382.803090150457
 21
567.7409923872991
 31
0.0
  0
LINE
  5
37E
330
370
100
AcDbEntity
  8
cote
 62
     0
370
    -2
100
AcDbLine
 10
1520.596101251623
 20
634.1671693103079
 30
0.0
 11
1520.596101251623
 21
567.7409923872991
 31
0.0
  0
LINE
  5
37F
330
370
100
AcDbEntity
  8
cote
 62
     0
370
    -2
100
AcDbLine
 10
1385.303090150457
 20
568.9909923872991
 30
0.0
 11
1518.096101251623
 21
568.9909923872991
 31
0.0
  0
SOLID
  5
380
330
370
100
AcDbEntity
  8
cote
 62
     0
100
AcDbTrace
 10
1385.303090150457
 20
569.4076590539657
 30
0.0
 11
1385.303090150457
 21
568.5743257206325
 31
0.0
 12
1382.803090150457
 22
568.9909923872991
 32
0.0
 13
1382.803090150457
 23
568.9909923872991
 33
0.0
  0
SOLID
  5
381
330
370
100
AcDbEntity
  8
cote
 62
     0
100
AcDbTrace
 10
1518.096101251623
 20
569.4076590539657
 30
0.0
 11
1518.096101251623
 21
568.5743257206325
 31
0.0
 12
1520.596101251623
 22
568.9909923872991
 32
0.0
 13
1520.596101251623
 23
568.9909923872991
 33
0.0
  0
MTEXT
  5
382
330
370
100
AcDbEntity
  8
cote
 62
     0
100
AcDbMText
 10
1451.69959570104
 20
574.8659923872991
 30
0.0
 40
9.0
 41
0.0
 71
     5
 72
     1
  1
137,79
 73
     1
 44
1.0
  0
POINT
  5
383
330
370
100
AcDbEntity
  8
Defpoints
 62
     0
100
AcDbPoint
 10
1382.803090150457
 20
634.7921693103079
 30
0.0
  0
POINT
  5
384
330
370
100
AcDbEntity
  8
Defpoints
 62
     0
100
AcDbPoint
 10
1520.596101251623
 20
634.7921693103079
 30
0.0
  0
POINT
  5
385
330
370
100
AcDbEntity
  8
Defpoints
 62
     0
100
AcDbPoint
 10
1520.596101251623
 20
568.9909923872991
 30
0.0
  0
ENDBLK
  5
37B
330
370
100
AcDbEntity
  8
0
100
AcDbBlockEnd
  0
BLOCK
  5
392
330
388
100
AcDbEntity
  8
0
100
AcDbBlockBegin
  2
*D7
 70
     1
 10
0.0
 20
0.0
 30
0.0
  3
*D7
  1

  0
LINE
  5
395
330
388
100
AcDbEntity
  8
cote
 62
     0
370
    -2
100
AcDbLine
 10
1368.175984532876
 20
920.0690813601895
 30
0.0
 11
1368.175984532876
 21
1049.76555934341
 31
0.0
  0
LINE
  5
396
330
388
100
AcDbEntity
  8
cote
 62
     0
370
    -2
100
AcDbLine
 10
1554.24123122393
 20
920.0690813601896
 30
0.0
 11
1554.24123122393
 21
1049.76555934341
 31
0.0
  0
LINE
  5
397
330
388
100
AcDbEntity
  8
cote
 62
     0
370
    -2
100
AcDbLine
 10
1370.675984532876
 20
1048.51555934341
 30
0.0
 11
1551.74123122393
 21
1048.51555934341
 31
0.0
  0
SOLID
  5
398
330
388
100
AcDbEntity
  8
cote
 62
     0
100
AcDbTrace
 10
1370.675984532876
 20
1048.932226010077
 30
0.0
 11
1370.675984532876
 21
1048.098892676744
 31
0.0
 12
1368.175984532876
 22
1048.51555934341
 32
0.0
 13
1368.175984532876
 23
1048.51555934341
 33
0.0
  0
SOLID
  5
399
330
388
100
AcDbEntity
  8
cote
 62
     0
100
AcDbTrace
 10
1551.74123122393
 20
1048.932226010077
 30
0.0
 11
1551.74123122393
 21
1048.098892676744
 31
0.0
 12
1554.24123122393
 22
1048.51555934341
 32
0.0
 13
1554.24123122393
 23
1048.51555934341
 33
0.0
  0
MTEXT
  5
39A
330
388
100
AcDbEntity
  8
cote
 62
     0
100
AcDbMText
 10
1461.208607878403
 20
1054.39055934341
 30
0.0
 40
9.0
 41
0.0
 71
     5
 72
     1
  1
186,07
 73
     1
 44
1.0
  0
POINT
  5
39B
330
388
100
AcDbEntity
  8
Defpoints
 62
     0
100
AcDbPoint
 10
1368.175984532876
 20
919.4440813601895
 30
0.0
  0
POINT
  5
39C
330
388
100
AcDbEntity
  8
Defpoints
 62
     0
100
AcDbPoint
 10
1554.24123122393
 20
919.4440813601897
 30
0.0
  0
POINT
  5
39D
330
388
100
AcDbEntity
  8
Defpoints
 62
     0
100
AcDbPoint
 10
1554.24123122393
 20
1048.51555934341
 30
0.0
  0
ENDBLK
  5
393
330
388
100
AcDbEntity
  8
0
100
AcDbBlockEnd
  0
ENDSEC
  0
SECTION
  2
ENTITIES
  0
POINT
  5
3BB
330
1F
100
AcDbEntity
  8
puncte
100
AcDbPoint
 10
1465.533210802635
 20
938.1373446266307
 30
0.0
  0
POINT
  5
3BC
330
1F
100
AcDbEntity
  8
puncte
100
AcDbPoint
 10
1465.087596968995
 20
945.7036653188779
 30
0.0
  0
POINT
  5
3BD
330
1F
100
AcDbEntity
  8
puncte
100
AcDbPoint
 10
1467.761277651882
 20
953.2699860111252
 30
0.0
  0
POINT
  5
3BE
330
1F
100
AcDbEntity
  8
puncte
100
AcDbPoint
 10
1471.357141649185
 20
959.7162033729299
 30
0.0
  0
POINT
  5
3BF
330
1F
100
AcDbEntity
  8
puncte
100
AcDbPoint
 10
1478.041342196927
 20
965.0569285563284
 30
0.0
  0
POINT
  5
3C0
330
1F
100
AcDbEntity
  8
puncte
100
AcDbPoint
 10
1485.171156578309
 20
969.5075332344446
 30
0.0
  0
POINT
  5
3C1
330
1F
100
AcDbEntity
  8
puncte
100
AcDbPoint
 10
1493.19219630802
 20
973.0680163314261
 30
0.0
  0
POINT
  5
3C2
330
1F
100
AcDbEntity
  8
puncte
100
AcDbPoint
 10
1501.213238356681
 20
974.4031976272754
 30
0.0
  0
POINT
  5
3C3
330
1F
100
AcDbEntity
  8
puncte
100
AcDbPoint
 10
1509.679891920031
 20
973.9581379125606
 30
0.0
  0
POINT
  5
3C4
330
1F
100
AcDbEntity
  8
puncte
100
AcDbPoint
 10
1517.700933968691
 20
972.1778958261436
 30
0.0
  0
POINT
  5
3C5
330
1F
100
AcDbEntity
  8
puncte
100
AcDbPoint
 10
1525.721973698403
 20
969.5075332344446
 30
0.0
  0
POINT
  5
3C6
330
1F
100
AcDbEntity
  8
puncte
100
AcDbPoint
 10
1533.743015747063
 20
965.9470501374631
 30
0.0
  0
POINT
  5
3C7
330
1F
100
AcDbEntity
  8
puncte
100
AcDbPoint
 10
1539.535988627527
 20
960.1612641634973
 30
0.0
  0
POINT
  5
3C8
330
1F
100
AcDbEntity
  8
puncte
100
AcDbPoint
 10
1544.883349993301
 20
953.9304173989643
 30
0.0
  0
POINT
  5
3C9
330
1F
100
AcDbEntity
  8
puncte
100
AcDbPoint
 10
1548.893869858156
 20
946.8094512050013
 30
0.0
  0
POINT
  5
3CA
330
1F
100
AcDbEntity
  8
puncte
100
AcDbPoint
 10
1552.013164374682
 20
938.7983634299038
 30
0.0
  0
POINT
  5
3CB
330
1F
100
AcDbEntity
  8
puncte
100
AcDbPoint
 10
1552.904392041961
 20
931.2323353695211
 30
0.0
  0
POINT
  5
3CC
330
1F
100
AcDbEntity
  8
puncte
100
AcDbPoint
 10
1554.24123122393
 20
923.2212475944237
 30
0.0
  0
POINT
  5
3CD
330
1F
100
AcDbEntity
  8
puncte
100
AcDbPoint
 10
1554.24123122393
 20
915.6552206098934
 30
0.0
  0
POINT
  5
3CE
330
1F
100
AcDbEntity
  8
puncte
100
AcDbPoint
 10
1554.24123122393
 20
908.5342533400782
 30
0.0
  0
POINT
  5
3CF
330
1F
100
AcDbEntity
  8
puncte
100
AcDbPoint
 10
1552.013164374682
 20
900.5231655649806
 30
0.0
  0
POINT
  5
3D0
330
1F
100
AcDbEntity
  8
puncte
100
AcDbPoint
 10
1549.785097525435
 20
893.4021993710176
 30
0.0
  0
POINT
  5
3D1
330
1F
100
AcDbEntity
  8
puncte
100
AcDbPoint
 10
1546.22018917527
 20
886.2812321012023
 30
0.0
  0
POINT
  5
3D2
330
1F
100
AcDbEntity
  8
puncte
100
AcDbPoint
 10
1481.129678747367
 20
954.6052189478922
 30
0.0
  0
POINT
  5
3D3
330
1F
100
AcDbEntity
  8
puncte
100
AcDbPoint
 10
1472.217411350377
 20
941.6979654327249
 30
0.0
  0
POINT
  5
3D4
330
1F
100
AcDbEntity
  8
puncte
100
AcDbPoint
 10
1479.792839565398
 20
943.0331983694919
 30
0.0
  0
POINT
  5
3D5
330
1F
100
AcDbEntity
  8
puncte
100
AcDbPoint
 10
1486.47704011314
 20
947.038898255645
 30
0.0
  0
POINT
  5
3D6
330
1F
100
AcDbEntity
  8
puncte
100
AcDbPoint
 10
1492.715626827244
 20
950.5995201375917
 30
0.0
  0
POINT
  5
3D7
330
1F
100
AcDbEntity
  8
puncte
100
AcDbPoint
 10
1498.954215860296
 20
955.4953738804528
 30
0.0
  0
POINT
  5
3D8
330
1F
100
AcDbEntity
  8
puncte
100
AcDbPoint
 10
1504.30157490712
 20
961.7264616359332
 30
0.0
  0
POINT
  5
3D9
330
1F
100
AcDbEntity
  8
puncte
100
AcDbPoint
 10
1512.322616955781
 20
964.3969285853193
 30
0.0
  0
POINT
  5
3DA
330
1F
100
AcDbEntity
  8
puncte
100
AcDbPoint
 10
1519.898045170801
 20
961.2813847075791
 30
0.0
  0
POINT
  5
3DB
330
1F
100
AcDbEntity
  8
puncte
100
AcDbPoint
 10
1526.136631884905
 20
957.2756848214261
 30
0.0
  0
POINT
  5
3DC
330
1F
100
AcDbEntity
  8
puncte
100
AcDbPoint
 10
1532.375218599008
 20
951.489675070152
 30
0.0
  0
POINT
  5
3DD
330
1F
100
AcDbEntity
  8
puncte
100
AcDbPoint
 10
1536.385740782813
 20
943.9233543779048
 30
0.0
  0
POINT
  5
3DE
330
1F
100
AcDbEntity
  8
puncte
100
AcDbPoint
 10
1538.178137450749
 20
935.7424034880468
 30
0.0
  0
POINT
  5
3DF
330
1F
100
AcDbEntity
  8
puncte
100
AcDbPoint
 10
1539.960590466357
 20
926.8408487831802
 30
0.0
  0
POINT
  5
3E0
330
1F
100
AcDbEntity
  8
puncte
100
AcDbPoint
 10
1540.406204299996
 20
918.3843731583722
 30
0.0
  0
POINT
  5
3E1
330
1F
100
AcDbEntity
  8
puncte
100
AcDbPoint
 10
1539.069362799079
 20
909.9278964577123
 30
0.0
  0
POINT
  5
3E2
330
1F
100
AcDbEntity
  8
puncte
100
AcDbPoint
 10
1538.178137450749
 20
901.4714208329046
 30
0.0
  0
POINT
  5
3E3
330
1F
100
AcDbEntity
  8
puncte
100
AcDbPoint
 10
1533.722003752254
 20
893.4600221364506
 30
0.0
  0
POINT
  5
3E4
330
1F
100
AcDbEntity
  8
puncte
100
AcDbPoint
 10
1529.711481568449
 20
885.8937014442034
 30
0.0
  0
POINT
  5
3E5
330
1F
100
AcDbEntity
  8
puncte
100
AcDbPoint
 10
1525.700961703593
 20
878.7724576803102
 30
0.0
  0
POINT
  5
3E6
330
1F
100
AcDbEntity
  8
puncte
100
AcDbPoint
 10
1542.655283144053
 20
878.71520404082
 30
0.0
  0
POINT
  5
3E7
330
1F
100
AcDbEntity
  8
puncte
100
AcDbPoint
 10
1538.644763279197
 20
871.594237846857
 30
0.0
  0
POINT
  5
3E8
330
1F
100
AcDbEntity
  8
puncte
100
AcDbPoint
 10
1534.188629580702
 20
865.3633910823238
 30
0.0
  0
POINT
  5
3E9
330
1F
100
AcDbEntity
  8
puncte
100
AcDbPoint
 10
1528.841268214929
 20
858.6874846030758
 30
0.0
  0
POINT
  5
3EA
330
1F
100
AcDbEntity
  8
puncte
100
AcDbPoint
 10
1523.048293015516
 20
852.4566389143952
 30
0.0
  0
POINT
  5
3EB
330
1F
100
AcDbEntity
  8
puncte
100
AcDbPoint
 10
1517.255320135052
 20
847.5609745215642
 30
0.0
  0
POINT
  5
3EC
330
1F
100
AcDbEntity
  8
puncte
100
AcDbPoint
 10
1511.462344935639
 20
842.2202493381659
 30
0.0
  0
POINT
  5
3ED
330
1F
100
AcDbEntity
  8
puncte
100
AcDbPoint
 10
1504.778144387897
 20
837.3245838694824
 30
0.0
  0
POINT
  5
3EE
330
1F
100
AcDbEntity
  8
puncte
100
AcDbPoint
 10
1497.648330006516
 20
832.8739802672188
 30
0.0
  0
POINT
  5
3EF
330
1F
100
AcDbEntity
  8
puncte
100
AcDbPoint
 10
1491.409743292412
 20
827.0881942932529
 30
0.0
  0
POINT
  5
3F0
330
1F
100
AcDbEntity
  8
puncte
100
AcDbPoint
 10
1484.279928911031
 20
822.1925288245696
 30
0.0
  0
POINT
  5
3F1
330
1F
100
AcDbEntity
  8
puncte
100
AcDbPoint
 10
1477.150114529649
 20
817.2968644317386
 30
0.0
  0
POINT
  5
3F2
330
1F
100
AcDbEntity
  8
puncte
100
AcDbPoint
 10
1467.315663818243
 20
809.9549687109281
 30
0.0
  0
POINT
  5
3F3
330
1F
100
AcDbEntity
  8
puncte
100
AcDbPoint
 10
1466.424436150964
 20
801.0534150819138
 30
0.0
  0
POINT
  5
3F4
330
1F
100
AcDbEntity
  8
puncte
100
AcDbPoint
 10
1466.424436150964
 20
793.0420163854599
 30
0.0
  0
POINT
  5
3F5
330
1F
100
AcDbEntity
  8
puncte
100
AcDbPoint
 10
1465.978824636274
 20
784.5855407606522
 30
0.0
  0
POINT
  5
3F6
330
1F
100
AcDbEntity
  8
puncte
100
AcDbPoint
 10
1465.533210802635
 20
776.1290640599919
 30
0.0
  0
POINT
  5
3F7
330
1F
100
AcDbEntity
  8
puncte
100
AcDbPoint
 10
1465.533210802635
 20
767.2275104309777
 30
0.0
  0
POINT
  5
3F8
330
1F
100
AcDbEntity
  8
puncte
100
AcDbPoint
 10
1465.087596968995
 20
759.2161117345241
 30
0.0
  0
POINT
  5
3F9
330
1F
100
AcDbEntity
  8
puncte
100
AcDbPoint
 10
1464.641983135356
 20
751.2047130380702
 30
0.0
  0
POINT
  5
3FA
330
1F
100
AcDbEntity
  8
puncte
100
AcDbPoint
 10
1463.76780206049
 20
743.2454178754595
 30
0.0
  0
POINT
  5
3FB
330
1F
100
AcDbEntity
  8
puncte
100
AcDbPoint
 10
1462.394026662504
 20
713.5689028871894
 30
0.0
  0
POINT
  5
3FC
330
1F
100
AcDbEntity
  8
puncte
100
AcDbPoint
 10
1461.502798995225
 20
704.6673492581753
 30
0.0
  0
POINT
  5
3FD
330
1F
100
AcDbEntity
  8
puncte
100
AcDbPoint
 10
1461.502798995225
 20
696.2108725575151
 30
0.0
  0
POINT
  5
3FE
330
1F
100
AcDbEntity
  8
puncte
100
AcDbPoint
 10
1461.057187480535
 20
687.7543969327073
 30
0.0
  0
POINT
  5
3FF
330
1F
100
AcDbEntity
  8
puncte
100
AcDbPoint
 10
1460.611573646896
 20
679.7429982362536
 30
0.0
  0
POINT
  5
400
330
1F
100
AcDbEntity
  8
puncte
100
AcDbPoint
 10
1459.720345979617
 20
671.2865226114459
 30
0.0
  0
POINT
  5
401
330
1F
100
AcDbEntity
  8
puncte
100
AcDbPoint
 10
1459.720345979617
 20
663.2751239149921
 30
0.0
  0
POINT
  5
402
330
1F
100
AcDbEntity
  8
puncte
100
AcDbPoint
 10
1459.720345979617
 20
655.2637252185384
 30
0.0
  0
POINT
  5
403
330
1F
100
AcDbEntity
  8
puncte
100
AcDbPoint
 10
1463.285254329783
 20
647.2523265220846
 30
0.0
  0
POINT
  5
404
330
1F
100
AcDbEntity
  8
puncte
100
AcDbPoint
 10
1468.632613376607
 20
641.0212387666042
 30
0.0
  0
POINT
  5
405
330
1F
100
AcDbEntity
  8
puncte
100
AcDbPoint
 10
1473.708221773862
 20
634.7921693103079
 30
0.0
  0
POINT
  5
406
330
1F
100
AcDbEntity
  8
puncte
100
AcDbPoint
 10
1482.620489170852
 20
634.7921693103079
 30
0.0
  0
POINT
  5
407
330
1F
100
AcDbEntity
  8
puncte
100
AcDbPoint
 10
1491.532756567842
 20
634.7921693103079
 30
0.0
  0
POINT
  5
408
330
1F
100
AcDbEntity
  8
puncte
100
AcDbPoint
 10
1500.445023964832
 20
634.7921693103079
 30
0.0
  0
POINT
  5
409
330
1F
100
AcDbEntity
  8
puncte
100
AcDbPoint
 10
1509.357291361822
 20
634.7921693103079
 30
0.0
  0
POINT
  5
40A
330
1F
100
AcDbEntity
  8
puncte
100
AcDbPoint
 10
1517.596101251623
 20
634.7921693103079
 30
0.0
  0
POINT
  5
40B
330
1F
100
AcDbEntity
  8
puncte
100
AcDbPoint
 10
1464.350340543233
 20
634.7921693103079
 30
0.0
  0
POINT
  5
40C
330
1F
100
AcDbEntity
  8
puncte
100
AcDbPoint
 10
1454.992459312603
 20
634.7921693103079
 30
0.0
  0
POINT
  5
40D
330
1F
100
AcDbEntity
  8
puncte
100
AcDbPoint
 10
1445.634578081974
 20
634.7921693103079
 30
0.0
  0
POINT
  5
40E
330
1F
100
AcDbEntity
  8
puncte
100
AcDbPoint
 10
1436.722308366035
 20
634.7921693103079
 30
0.0
  0
POINT
  5
40F
330
1F
100
AcDbEntity
  8
puncte
100
AcDbPoint
 10
1427.364427135406
 20
634.7921693103079
 30
0.0
  0
POINT
  5
410
330
1F
100
AcDbEntity
  8
puncte
100
AcDbPoint
 10
1418.452159738417
 20
634.7921693103079
 30
0.0
  0
POINT
  5
411
330
1F
100
AcDbEntity
  8
puncte
100
AcDbPoint
 10
1409.094278507787
 20
634.7921693103079
 30
0.0
  0
POINT
  5
412
330
1F
100
AcDbEntity
  8
puncte
100
AcDbPoint
 10
1399.736397277158
 20
634.7921693103079
 30
0.0
  0
POINT
  5
413
330
1F
100
AcDbEntity
  8
puncte
100
AcDbPoint
 10
1391.269743713807
 20
634.7921693103079
 30
0.0
  0
POINT
  5
414
330
1F
100
AcDbEntity
  8
puncte
100
AcDbPoint
 10
1382.803090150457
 20
634.7921693103079
 30
0.0
  0
POINT
  5
415
330
1F
100
AcDbEntity
  8
puncte
100
AcDbPoint
 10
1434.266397843239
 20
642.3584900025552
 30
0.0
  0
POINT
  5
416
330
1F
100
AcDbEntity
  8
puncte
100
AcDbPoint
 10
1440.950598390982
 20
648.5895777580357
 30
0.0
  0
POINT
  5
417
330
1F
100
AcDbEntity
  8
puncte
100
AcDbPoint
 10
1446.297959756755
 20
655.7108204460766
 30
0.0
  0
POINT
  5
418
330
1F
100
AcDbEntity
  8
puncte
100
AcDbPoint
 10
1447.634801257672
 20
663.7222191425303
 30
0.0
  0
POINT
  5
419
330
1F
100
AcDbEntity
  8
puncte
100
AcDbPoint
 10
1446.743573590394
 20
671.7336178389841
 30
0.0
  0
POINT
  5
41A
330
1F
100
AcDbEntity
  8
puncte
100
AcDbPoint
 10
1446.297959756755
 20
679.7450165354377
 30
0.0
  0
POINT
  5
41B
330
1F
100
AcDbEntity
  8
puncte
100
AcDbPoint
 10
1445.852345923116
 20
688.2014921602454
 30
0.0
  0
POINT
  5
41C
330
1F
100
AcDbEntity
  8
puncte
100
AcDbPoint
 10
1445.406732089476
 20
696.6579688609057
 30
0.0
  0
POINT
  5
41D
330
1F
100
AcDbEntity
  8
puncte
100
AcDbPoint
 10
1444.961120574786
 20
705.5595224899199
 30
0.0
  0
POINT
  5
41E
330
1F
100
AcDbEntity
  8
puncte
100
AcDbPoint
 10
1444.069892907507
 20
714.0159991905801
 30
0.0
  0
POINT
  5
41F
330
1F
100
AcDbEntity
  8
puncte
100
AcDbPoint
 10
1443.178665240229
 20
722.0273968111813
 30
0.0
  0
POINT
  5
420
330
1F
100
AcDbEntity
  8
puncte
100
AcDbPoint
 10
1442.823975068933
 20
730.7836210645588
 30
0.0
  0
POINT
  5
421
330
1F
100
AcDbEntity
  8
puncte
100
AcDbPoint
 10
1441.041519734376
 20
752.1466261558394
 30
0.0
  0
POINT
  5
422
330
1F
100
AcDbEntity
  8
puncte
100
AcDbPoint
 10
1441.422258657211
 20
760.5422612491098
 30
0.0
  0
POINT
  5
423
330
1F
100
AcDbEntity
  8
puncte
100
AcDbPoint
 10
1440.976644823572
 20
768.1085819413571
 30
0.0
  0
POINT
  5
424
330
1F
100
AcDbEntity
  8
puncte
100
AcDbPoint
 10
1440.085417156293
 20
776.1199795619585
 30
0.0
  0
POINT
  5
425
330
1F
100
AcDbEntity
  8
puncte
100
AcDbPoint
 10
1438.748577974324
 20
784.1313782584121
 30
0.0
  0
POINT
  5
426
330
1F
100
AcDbEntity
  8
puncte
100
AcDbPoint
 10
1438.302964140685
 20
791.6976989506594
 30
0.0
  0
POINT
  5
427
330
1F
100
AcDbEntity
  8
puncte
100
AcDbPoint
 10
1438.302964140685
 20
799.2640207187593
 30
0.0
  0
POINT
  5
428
330
1F
100
AcDbEntity
  8
puncte
100
AcDbPoint
 10
1437.857350307046
 20
808.1655743477735
 30
0.0
  0
POINT
  5
429
330
1F
100
AcDbEntity
  8
puncte
100
AcDbPoint
 10
1437.411736473406
 20
817.0671279767876
 30
0.0
  0
POINT
  5
42A
330
1F
100
AcDbEntity
  8
puncte
100
AcDbPoint
 10
1436.520511125077
 20
825.5236046774479
 30
0.0
  0
POINT
  5
42B
330
1F
100
AcDbEntity
  8
puncte
100
AcDbPoint
 10
1436.074897291438
 20
833.9800803022555
 30
0.0
  0
POINT
  5
42C
330
1F
100
AcDbEntity
  8
puncte
100
AcDbPoint
 10
1436.074897291438
 20
842.8816339312696
 30
0.0
  0
POINT
  5
42D
330
1F
100
AcDbEntity
  8
puncte
100
AcDbPoint
 10
1436.074897291438
 20
850.8930326277235
 30
0.0
  0
POINT
  5
42E
330
1F
100
AcDbEntity
  8
puncte
100
AcDbPoint
 10
1433.003435731201
 20
860.2487476831253
 30
0.0
  0
POINT
  5
42F
330
1F
100
AcDbEntity
  8
puncte
100
AcDbPoint
 10
1440.578861627273
 20
858.0233587379456
 30
0.0
  0
POINT
  5
430
330
1F
100
AcDbEntity
  8
puncte
100
AcDbPoint
 10
1449.491129024263
 20
857.1332038053853
 30
0.0
  0
POINT
  5
431
330
1F
100
AcDbEntity
  8
puncte
100
AcDbPoint
 10
1457.957784906563
 20
858.0233587379456
 30
0.0
  0
POINT
  5
432
330
1F
100
AcDbEntity
  8
puncte
100
AcDbPoint
 10
1465.533210802635
 20
858.9135147463586
 30
0.0
  0
POINT
  5
433
330
1F
100
AcDbEntity
  8
puncte
100
AcDbPoint
 10
1473.554252851295
 20
862.0290586240987
 30
0.0
  0
POINT
  5
434
330
1F
100
AcDbEntity
  8
puncte
100
AcDbPoint
 10
1481.129681066316
 20
865.5896805060455
 30
0.0
  0
POINT
  5
435
330
1F
100
AcDbEntity
  8
puncte
100
AcDbPoint
 10
1487.813881614058
 20
870.9306122531128
 30
0.0
  0
POINT
  5
436
330
1F
100
AcDbEntity
  8
puncte
100
AcDbPoint
 10
1494.498082161801
 20
876.271545076033
 30
0.0
  0
POINT
  5
437
330
1F
100
AcDbEntity
  8
puncte
100
AcDbPoint
 10
1501.182282709543
 20
882.0575548273069
 30
0.0
  0
POINT
  5
438
330
1F
100
AcDbEntity
  8
puncte
100
AcDbPoint
 10
1507.420869423647
 20
888.2886425827873
 30
0.0
  0
POINT
  5
439
330
1F
100
AcDbEntity
  8
puncte
100
AcDbPoint
 10
1512.76823078942
 20
895.409885270828
 30
0.0
  0
POINT
  5
43A
330
1F
100
AcDbEntity
  8
puncte
100
AcDbPoint
 10
1517.669978321554
 20
902.9762059630755
 30
0.0
  0
POINT
  5
43B
330
1F
100
AcDbEntity
  8
puncte
100
AcDbPoint
 10
1521.68049818641
 20
911.4326826637356
 30
0.0
  0
POINT
  5
43C
330
1F
100
AcDbEntity
  8
puncte
100
AcDbPoint
 10
1523.908565035657
 20
919.4440813601895
 30
0.0
  0
POINT
  5
43D
330
1F
100
AcDbEntity
  8
puncte
100
AcDbPoint
 10
1516.119628888386
 20
919.4440813601895
 30
0.0
  0
POINT
  5
43E
330
1F
100
AcDbEntity
  8
puncte
100
AcDbPoint
 10
1507.652975325036
 20
919.4440813601895
 30
0.0
  0
POINT
  5
43F
330
1F
100
AcDbEntity
  8
puncte
100
AcDbPoint
 10
1499.186319442736
 20
919.4440813601895
 30
0.0
  0
POINT
  5
440
330
1F
100
AcDbEntity
  8
puncte
100
AcDbPoint
 10
1490.274052045746
 20
919.4440813601895
 30
0.0
  0
POINT
  5
441
330
1F
100
AcDbEntity
  8
puncte
100
AcDbPoint
 10
1481.361784648756
 20
919.4440813601895
 30
0.0
  0
POINT
  5
442
330
1F
100
AcDbEntity
  8
puncte
100
AcDbPoint
 10
1472.449517251767
 20
919.4440813601895
 30
0.0
  0
POINT
  5
443
330
1F
100
AcDbEntity
  8
puncte
100
AcDbPoint
 10
1463.537249854776
 20
919.4440813601895
 30
0.0
  0
POINT
  5
444
330
1F
100
AcDbEntity
  8
puncte
100
AcDbPoint
 10
1454.624980138838
 20
919.4440813601895
 30
0.0
  0
POINT
  5
445
330
1F
100
AcDbEntity
  8
puncte
100
AcDbPoint
 10
1445.267101227157
 20
919.4440813601895
 30
0.0
  0
POINT
  5
446
330
1F
100
AcDbEntity
  8
puncte
100
AcDbPoint
 10
1436.354831511219
 20
919.4440813601895
 30
0.0
  0
POINT
  5
447
330
1F
100
AcDbEntity
  8
puncte
100
AcDbPoint
 10
1427.888177947868
 20
919.4440813601895
 30
0.0
  0
POINT
  5
448
330
1F
100
AcDbEntity
  8
puncte
100
AcDbPoint
 10
1418.975910550878
 20
919.4440813601895
 30
0.0
  0
POINT
  5
449
330
1F
100
AcDbEntity
  8
puncte
100
AcDbPoint
 10
1410.509254668579
 20
919.4440813601895
 30
0.0
  0
POINT
  5
44A
330
1F
100
AcDbEntity
  8
puncte
100
AcDbPoint
 10
1402.042601105228
 20
919.4440813601895
 30
0.0
  0
POINT
  5
44B
330
1F
100
AcDbEntity
  8
puncte
100
AcDbPoint
 10
1393.130333708238
 20
919.4440813601895
 30
0.0
  0
POINT
  5
44C
330
1F
100
AcDbEntity
  8
puncte
100
AcDbPoint
 10
1384.218066311248
 20
919.4440813601895
 30
0.0
  0
POINT
  5
44D
330
1F
100
AcDbEntity
  8
puncte
100
AcDbPoint
 10
1376.197024262588
 20
919.4440813601895
 30
0.0
  0
POINT
  5
44E
330
1F
100
AcDbEntity
  8
puncte
100
AcDbPoint
 10
1368.175984532876
 20
919.4440813601895
 30
0.0
  0
POINT
  5
44F
330
1F
100
AcDbEntity
  8
puncte
100
AcDbPoint
 10
1373.291239997261
 20
910.5425266553227
 30
0.0
  0
POINT
  5
450
330
1F
100
AcDbEntity
  8
puncte
100
AcDbPoint
 10
1378.192987529395
 20
902.5311279588692
 30
0.0
  0
POINT
  5
451
330
1F
100
AcDbEntity
  8
puncte
100
AcDbPoint
 10
1383.094735061529
 20
894.5197303382677
 30
0.0
  0
POINT
  5
452
330
1F
100
AcDbEntity
  8
puncte
100
AcDbPoint
 10
1388.887710260942
 20
887.3984865743745
 30
0.0
  0
POINT
  5
453
330
1F
100
AcDbEntity
  8
puncte
100
AcDbPoint
 10
1395.571910808685
 20
881.1673988188941
 30
0.0
  0
POINT
  5
454
330
1F
100
AcDbEntity
  8
puncte
100
AcDbPoint
 10
1401.810497522788
 20
875.8264670718267
 30
0.0
  0
POINT
  5
455
330
1F
100
AcDbEntity
  8
puncte
100
AcDbPoint
 10
1409.831539571448
 20
870.9306122531129
 30
0.0
  0
POINT
  5
456
330
1F
100
AcDbEntity
  8
puncte
100
AcDbPoint
 10
1417.852579301159
 20
866.4798354386059
 30
0.0
  0
POINT
  5
457
330
1F
100
AcDbEntity
  8
puncte
100
AcDbPoint
 10
1424.982393682541
 20
863.3642915608655
 30
0.0
  0
POINT
  5
458
330
1F
100
AcDbEntity
  8
puncte
100
AcDbPoint
 10
1469.98934450113
 20
852.2373489866714
 30
0.0
  0
POINT
  5
459
330
1F
100
AcDbEntity
  8
puncte
100
AcDbPoint
 10
1469.543732986439
 20
843.7808733618636
 30
0.0
  0
POINT
  5
45A
330
1F
100
AcDbEntity
  8
puncte
100
AcDbPoint
 10
1468.652505319161
 20
835.3243966612037
 30
0.0
  0
POINT
  5
45B
330
1F
100
AcDbEntity
  8
puncte
100
AcDbPoint
 10
1468.206891485522
 20
826.8679210363957
 30
0.0
  0
POINT
  5
45C
330
1F
100
AcDbEntity
  8
puncte
100
AcDbPoint
 10
1467.761277651882
 20
818.8565223399422
 30
0.0
  0
POINT
  5
45D
330
1F
100
AcDbEntity
  8
puncte
100
AcDbPoint
 10
1519.016761155851
 20
871.6512149922692
 30
0.0
  0
POINT
  5
45E
330
1F
100
AcDbEntity
  8
puncte
100
AcDbPoint
 10
1512.332560608108
 20
865.8652052409953
 30
0.0
  0
POINT
  5
45F
330
1F
100
AcDbEntity
  8
puncte
100
AcDbPoint
 10
1506.093973894005
 20
859.1890394813084
 30
0.0
  0
POINT
  5
460
330
1F
100
AcDbEntity
  8
puncte
100
AcDbPoint
 10
1498.964159512623
 20
853.8481077342408
 30
0.0
  0
POINT
  5
461
330
1F
100
AcDbEntity
  8
puncte
100
AcDbPoint
 10
1490.943117463963
 20
848.9522529155273
 30
0.0
  0
POINT
  5
462
330
1F
100
AcDbEntity
  8
puncte
100
AcDbPoint
 10
1483.367689248942
 20
843.1662420884009
 30
0.0
  0
POINT
  5
463
330
1F
100
AcDbEntity
  8
puncte
100
AcDbPoint
 10
1476.237877186509
 20
838.2703883455398
 30
0.0
  0
POINT
  5
464
330
1F
100
AcDbEntity
  8
puncte
100
AcDbPoint
 10
1430.792413155417
 20
812.2328398900108
 30
0.0
  0
POINT
  5
465
330
1F
100
AcDbEntity
  8
puncte
100
AcDbPoint
 10
1423.662598774035
 20
807.3369850712973
 30
0.0
  0
POINT
  5
466
330
1F
100
AcDbEntity
  8
puncte
100
AcDbPoint
 10
1416.532784392653
 20
801.9960522483774
 30
0.0
  0
POINT
  5
467
330
1F
100
AcDbEntity
  8
puncte
100
AcDbPoint
 10
1410.739811512189
 20
796.2100424971032
 30
0.0
  0
POINT
  5
468
330
1F
100
AcDbEntity
  8
puncte
100
AcDbPoint
 10
1405.392450146416
 20
789.9789547416229
 30
0.0
  0
POINT
  5
469
330
1F
100
AcDbEntity
  8
puncte
100
AcDbPoint
 10
1402.718769463529
 20
782.857712053582
 30
0.0
  0
POINT
  5
46A
330
1F
100
AcDbEntity
  8
puncte
100
AcDbPoint
 10
1401.827541796251
 20
774.4012353529218
 30
0.0
  0
POINT
  5
46B
330
1F
100
AcDbEntity
  8
puncte
100
AcDbPoint
 10
1401.38193028156
 20
765.944759728114
 30
0.0
  0
POINT
  5
46C
330
1F
100
AcDbEntity
  8
puncte
100
AcDbPoint
 10
1402.718769463529
 20
757.9333610316604
 30
0.0
  0
POINT
  5
46D
330
1F
100
AcDbEntity
  8
puncte
100
AcDbPoint
 10
1408.066130829303
 20
750.8121172677671
 30
0.0
  0
POINT
  5
46E
330
1F
100
AcDbEntity
  8
puncte
100
AcDbPoint
 10
1412.967878361437
 20
744.5810295122866
 30
0.0
  0
POINT
  5
46F
330
1F
100
AcDbEntity
  8
puncte
100
AcDbPoint
 10
1420.097692742819
 20
739.6851757694256
 30
0.0
  0
POINT
  5
470
330
1F
100
AcDbEntity
  8
puncte
100
AcDbPoint
 10
1427.2275071242
 20
736.5696318916853
 30
0.0
  0
POINT
  5
471
330
1F
100
AcDbEntity
  8
puncte
100
AcDbPoint
 10
1435.248546853912
 20
733.4540880139451
 30
0.0
  0
POINT
  5
472
330
1F
100
AcDbEntity
  8
puncte
100
AcDbPoint
 10
1450.845014798644
 20
727.6680771868187
 30
0.0
  0
POINT
  5
473
330
1F
100
AcDbEntity
  8
puncte
100
AcDbPoint
 10
1458.866056847304
 20
724.5525333090784
 30
0.0
  0
POINT
  5
474
330
1F
100
AcDbEntity
  8
puncte
100
AcDbPoint
 10
1448.616947949396
 20
749.0312038494252
 30
0.0
  0
POINT
  5
475
330
1F
100
AcDbEntity
  8
puncte
100
AcDbPoint
 10
1456.192376164417
 20
746.3608412577261
 30
0.0
  0
POINT
  5
476
330
1F
100
AcDbEntity
  8
puncte
100
AcDbPoint
 10
1433.466093838303
 20
755.2620495381059
 30
0.0
  0
POINT
  5
477
330
1F
100
AcDbEntity
  8
puncte
100
AcDbPoint
 10
1426.336279456922
 20
761.0478355120716
 30
0.0
  0
POINT
  5
478
330
1F
100
AcDbEntity
  8
puncte
100
AcDbPoint
 10
1421.434531924788
 20
768.1688027818869
 30
0.0
  0
POINT
  5
479
330
1F
100
AcDbEntity
  8
puncte
100
AcDbPoint
 10
1420.543304257509
 20
776.1798905569845
 30
0.0
  0
POINT
  5
47A
330
1F
100
AcDbEntity
  8
puncte
100
AcDbPoint
 10
1424.553824122365
 20
782.8557970362325
 30
0.0
  0
POINT
  5
47B
330
1F
100
AcDbEntity
  8
puncte
100
AcDbPoint
 10
1431.238024670107
 20
786.8613409237813
 30
0.0
  0
POINT
  5
47C
330
1F
100
AcDbEntity
  8
puncte
100
AcDbPoint
 10
1470.006391093542
 20
738.7948131973433
 30
0.0
  0
POINT
  5
47D
330
1F
100
AcDbEntity
  8
puncte
100
AcDbPoint
 10
1477.136205474923
 20
733.4540880139451
 30
0.0
  0
POINT
  5
47E
330
1F
100
AcDbEntity
  8
puncte
100
AcDbPoint
 10
1482.483566840697
 20
726.7779222542582
 30
0.0
  0
POINT
  5
47F
330
1F
100
AcDbEntity
  8
puncte
100
AcDbPoint
 10
1487.385314372831
 20
719.6566795662173
 30
0.0
  0
POINT
  5
480
330
1F
100
AcDbEntity
  8
puncte
100
AcDbPoint
 10
1489.613381222079
 20
711.2002028655571
 30
0.0
  0
POINT
  5
481
330
1F
100
AcDbEntity
  8
puncte
100
AcDbPoint
 10
1488.7221535548
 20
703.1888041691034
 30
0.0
  0
POINT
  5
482
330
1F
100
AcDbEntity
  8
puncte
100
AcDbPoint
 10
1487.385314372831
 20
696.0675614810626
 30
0.0
  0
POINT
  5
483
330
1F
100
AcDbEntity
  8
puncte
100
AcDbPoint
 10
1483.374792189026
 20
688.9463177171692
 30
0.0
  0
POINT
  5
484
330
1F
100
AcDbEntity
  8
puncte
100
AcDbPoint
 10
1476.690591641284
 20
684.0504639743081
 30
0.0
  0
POINT
  5
485
330
1F
100
AcDbEntity
  8
puncte
100
AcDbPoint
 10
1470.006391093542
 20
678.7095311513882
 30
0.0
  0
POINT
  5
486
330
1F
100
AcDbEntity
  8
puncte
100
AcDbPoint
 10
1468.223938077934
 20
693.3970956075288
 30
0.0
  0
POINT
  5
487
330
1F
100
AcDbEntity
  8
puncte
100
AcDbPoint
 10
1473.571299443707
 20
700.0732602913632
 30
0.0
  0
POINT
  5
488
330
1F
100
AcDbEntity
  8
puncte
100
AcDbPoint
 10
1474.462524792037
 20
708.084658987817
 30
0.0
  0
POINT
  5
489
330
1F
100
AcDbEntity
  8
puncte
100
AcDbPoint
 10
1472.234457942789
 20
715.6509796800643
 30
0.0
  0
POINT
  5
48A
330
1F
100
AcDbEntity
  8
puncte
100
AcDbPoint
 10
1466.441485062325
 20
721.4369894313382
 30
0.0
  0
POINT
  5
48B
330
1F
100
AcDbEntity
  8
puncte
100
AcDbPoint
 10
1438.367841370438
 20
676.4841422062083
 30
0.0
  0
POINT
  5
48C
330
1F
100
AcDbEntity
  8
puncte
100
AcDbPoint
 10
1431.238026989056
 20
679.1546091555947
 30
0.0
  0
POINT
  5
48D
330
1F
100
AcDbEntity
  8
puncte
100
AcDbPoint
 10
1423.662598774035
 20
683.6053859701017
 30
0.0
  0
POINT
  5
48E
330
1F
100
AcDbEntity
  8
puncte
100
AcDbPoint
 10
1416.978398226293
 20
688.0561627846089
 30
0.0
  0
POINT
  5
48F
330
1F
100
AcDbEntity
  8
puncte
100
AcDbPoint
 10
1411.631036860519
 20
694.2872505400893
 30
0.0
  0
POINT
  5
490
330
1F
100
AcDbEntity
  8
puncte
100
AcDbPoint
 10
1407.620516995663
 20
701.4084932281301
 30
0.0
  0
POINT
  5
491
330
1F
100
AcDbEntity
  8
puncte
100
AcDbPoint
 10
1405.392450146416
 20
708.5297369920234
 30
0.0
  0
POINT
  5
492
330
1F
100
AcDbEntity
  8
puncte
100
AcDbPoint
 10
1407.174903162024
 20
716.5411356884771
 30
0.0
  0
POINT
  5
493
330
1F
100
AcDbEntity
  8
puncte
100
AcDbPoint
 10
1412.522264527798
 20
710.3100479329968
 30
0.0
  0
POINT
  5
494
330
1F
100
AcDbEntity
  8
puncte
100
AcDbPoint
 10
1416.087170559014
 20
703.6338821733099
 30
0.0
  0
POINT
  5
495
330
1F
100
AcDbEntity
  8
puncte
100
AcDbPoint
 10
1420.988918091149
 20
697.8478724220359
 30
0.0
  0
POINT
  5
496
330
1F
100
AcDbEntity
  8
puncte
100
AcDbPoint
 10
1428.564346306169
 20
693.3970956075288
 30
0.0
  0
POINT
  5
497
330
1F
100
AcDbEntity
  8
puncte
100
AcDbPoint
 10
1435.248546853912
 20
690.7266286581426
 30
0.0
  0
ENDSEC
  0
SECTION
  2
OBJECTS
  0
DICTIONARY
  5
C
330
0
100
AcDbDictionary
281
     1
  3
ACAD_COLOR
350
6B
  3
ACAD_GROUP
350
D
  3
ACAD_IMAGE_DICT
350
11B
  3
ACAD_IMAGE_VARS
350
11D
  3
ACAD_LAYOUT
350
1A
  3
ACAD_MATERIAL
350
6A
  3
ACAD_MLINESTYLE
350
17
  3
ACAD_PLOTSETTINGS
350
19
  3
ACAD_PLOTSTYLENAME
350
E
  3
ACAD_TABLESTYLE
350
7E
  3
ACAD_VISUALSTYLE
350
EF
  3
AcDbVariableDictionary
350
5E
  0
DICTIONARY
  5
142
330
2
100
AcDbDictionary
280
     1
281
     1
  3
ACAD_LAYERFILTERS
360
4A6
  3
ACLYDICTIONARY
360
4A5
  0
DICTIONARY
  5
6B
102
{ACAD_REACTORS
330
C
102
}
330
C
100
AcDbDictionary
281
     1
  0
DICTIONARY
  5
D
102
{ACAD_REACTORS
330
C
102
}
330
C
100
AcDbDictionary
281
     1
  0
DICTIONARY
  5
11B
102
{ACAD_REACTORS
330
C
102
}
330
C
100
AcDbDictionary
281
     1
  3
1
350
122
  3
Pharmacy_Logo_for_web
350
11F
  0
RASTERVARIABLES
  5
11D
102
{ACAD_REACTORS
330
C
102
}
330
C
100
AcDbRasterVariables
 90
        0
 70
     1
 71
     1
 72
     1
  0
DICTIONARY
  5
1A
102
{ACAD_REACTORS
330
C
102
}
330
C
100
AcDbDictionary
281
     1
  3
Layout1
350
D3
  3
Layout2
350
D7
  3
Model
350
22
  0
DICTIONARY
  5
6A
102
{ACAD_REACTORS
330
C
102
}
330
C
100
AcDbDictionary
281
     1
  3
ByBlock
350
ED
  3
ByLayer
350
EC
  3
Global
350
EE
  0
DICTIONARY
  5
17
102
{ACAD_REACTORS
330
C
102
}
330
C
100
AcDbDictionary
281
     1
  3
Standard
350
18
  0
DICTIONARY
  5
19
102
{ACAD_REACTORS
330
C
102
}
330
C
100
AcDbDictionary
281
     1
  0
ACDBDICTIONARYWDFLT
  5
E
102
{ACAD_REACTORS
330
C
102
}
330
C
100
AcDbDictionary
281
     1
  3
Normal
350
F
100
AcDbDictionaryWithDefault
340
F
  0
DICTIONARY
  5
7E
102
{ACAD_REACTORS
330
C
102
}
330
C
100
AcDbDictionary
281
     1
  3
Standard
350
7F
  0
DICTIONARY
  5
EF
102
{ACAD_REACTORS
330
C
102
}
330
C
100
AcDbDictionary
281
     1
  3
2dWireframe
350
F5
  3
3D Hidden
350
F7
  3
3dWireframe
350
F6
  3
Basic
350
F4
  3
Brighten
350
FB
  3
ColorChange
350
FF
  3
Conceptual
350
F8
  3
Dim
350
FA
  3
Facepattern
350
FE
  3
Flat
350
F0
  3
FlatWithEdges
350
F1
  3
Gouraud
350
F2
  3
GouraudWithEdges
350
F3
  3
Linepattern
350
FD
  3
Realistic
350
F9
  3
Thicken
350
FC
  0
DICTIONARY
  5
5E
102
{ACAD_REACTORS
330
C
102
}
330
C
100
AcDbDictionary
281
     1
  3
CTABLESTYLE
350
84
  3
DIMASSOC
350
5F
  3
HIDETEXT
350
63
  3
PSOLHEIGHT
350
3A0
  3
PSOLWIDTH
350
39F
  0
DICTIONARY
  5
4A6
102
{ACAD_REACTORS
330
142
102
}
330
142
100
AcDbDictionary
281
     1
  0
DICTIONARY
  5
4A5
102
{ACAD_REACTORS
330
142
102
}
330
142
100
AcDbDictionary
281
     1
1001
ACAD
1000
<All
  0
IMAGEDEF
  5
122
102
{ACAD_REACTORS
330
11B
330
123
102
}
330
11B
100
AcDbRasterImageDef
 90
        0
  1
C:\Documents and Settings\ANDREIPCC1\Desktop\1.JPG
 10
183.0
 20
333.0
 11
0.2645833333333333
 21
0.2645833333333333
280
     1
281
     5
  0
IMAGEDEF
  5
11F
102
{ACAD_REACTORS
330
11B
102
}
330
11B
100
AcDbRasterImageDef
 90
        0
  1
C:\Documents and Settings\ANDREIPCC1\Desktop\Pharmacy_Logo_for_web.jpg
 10
348.0
 20
400.0
 11
0.0028735632183908
 21
0.0028735632183908
280
     1
281
     0
  0
LAYOUT
  5
D3
102
{ACAD_REACTORS
330
1A
102
}
330
1A
100
AcDbPlotSettings
  1

  2
C:\Documents and Settings\basas\Application Data\Autodesk\AutoCAD 2005\R16.1\enu\plotters\Default Windows System Printer.pc3
  4

  6

 40
0.0
 41
0.0
 42
0.0
 43
0.0
 44
0.0
 45
0.0
 46
0.0
 47
0.0
 48
0.0
 49
0.0
140
0.0
141
0.0
142
1.0
143
1.0
 70
   688
 72
     0
 73
     0
 74
     5
  7

 75
    16
147
1.0
 76
     0
 77
     2
 78
   300
148
0.0
149
0.0
100
AcDbLayout
  1
Layout1
 70
     1
 71
     1
 10
0.0
 20
0.0
 11
12.0
 21
9.0
 12
0.0
 22
0.0
 32
0.0
 14
0.0
 24
0.0
 34
0.0
 15
0.0
 25
0.0
 35
0.0
146
0.0
 13
0.0
 23
0.0
 33
0.0
 16
1.0
 26
0.0
 36
0.0
 17
0.0
 27
1.0
 37
0.0
 76
     0
330
D2
  0
LAYOUT
  5
D7
102
{ACAD_REACTORS
330
1A
102
}
330
1A
100
AcDbPlotSettings
  1

  2
C:\Documents and Settings\basas\Application Data\Autodesk\AutoCAD 2005\R16.1\enu\plotters\Default Windows System Printer.pc3
  4

  6

 40
0.0
 41
0.0
 42
0.0
 43
0.0
 44
0.0
 45
0.0
 46
0.0
 47
0.0
 48
0.0
 49
0.0
140
0.0
141
0.0
142
1.0
143
1.0
 70
   688
 72
     0
 73
     0
 74
     5
  7

 75
    16
147
1.0
 76
     0
 77
     2
 78
   300
148
0.0
149
0.0
100
AcDbLayout
  1
Layout2
 70
     1
 71
     2
 10
0.0
 20
0.0
 11
12.0
 21
9.0
 12
0.0
 22
0.0
 32
0.0
 14
0.0
 24
0.0
 34
0.0
 15
0.0
 25
0.0
 35
0.0
146
0.0
 13
0.0
 23
0.0
 33
0.0
 16
1.0
 26
0.0
 36
0.0
 17
0.0
 27
1.0
 37
0.0
 76
     0
330
D6
  0
LAYOUT
  5
22
102
{ACAD_REACTORS
330
1A
102
}
330
1A
100
AcDbPlotSettings
  1

  2
none_device
  4
ISO_A4_(210.00_x_297.00_MM)
  6

 40
7.5
 41
20.0
 42
7.5
 43
20.0
 44
210.0
 45
297.0
 46
11.54999923706054
 47
-13.65000009536743
 48
0.0
 49
0.0
140
0.0
141
0.0
142
1.0
143
8.704084754739808
 70
 11952
 72
     1
 73
     0
 74
     0
  7

 75
     0
147
0.1148885871608098
 76
     0
 77
     2
 78
   300
148
0.0
149
0.0
100
AcDbLayout
  1
Model
 70
     1
 71
     0
 10
0.0
 20
0.0
 11
12.0
 21
9.0
 12
0.0
 22
0.0
 32
0.0
 14
0.0
 24
0.0
 34
0.0
 15
0.0
 25
0.0
 35
0.0
146
0.0
 13
0.0
 23
0.0
 33
0.0
 16
1.0
 26
0.0
 36
0.0
 17
0.0
 27
1.0
 37
0.0
 76
     0
330
1F
331
EA
1001
ACAD_PSEXT
1000
None
1000
None
1000
Not applicable
1000
The layout will not be plotted unless a new plotter configuration name is selected.
1070
     0
  0
MATERIAL
  5
ED
102
{ACAD_XDICTIONARY
360
4AB
102
}
102
{ACAD_REACTORS
330
6A
102
}
330
6A
100
AcDbMaterial
  1
ByBlock
  0
MATERIAL
  5
EC
102
{ACAD_XDICTIONARY
360
4A9
102
}
102
{ACAD_REACTORS
330
6A
102
}
330
6A
100
AcDbMaterial
  1
ByLayer
  0
MATERIAL
  5
EE
102
{ACAD_XDICTIONARY
360
4AD
102
}
102
{ACAD_REACTORS
330
6A
102
}
330
6A
100
AcDbMaterial
  1
Global
  0
MLINESTYLE
  5
18
102
{ACAD_REACTORS
330
17
102
}
330
17
100
AcDbMlineStyle
  2
STANDARD
 70
     0
  3

 62
   256
 51
90.0
 52
90.0
 71
     2
 49
0.5
 62
   256
  6
BYLAYER
 49
-0.5
 62
   256
  6
BYLAYER
  0
ACDBPLACEHOLDER
  5
F
102
{ACAD_REACTORS
330
E
102
}
330
E
  0
TABLESTYLE
  5
7F
102
{ACAD_XDICTIONARY
360
4A7
102
}
102
{ACAD_REACTORS
330
7E
102
}
330
7E
100
AcDbTableStyle
  3
Standard
 70
     0
 71
     0
 40
1.5
 41
1.5
280
     0
281
     0
  7
Standard
140
4.5
170
     2
 62
     0
 63
     7
283
     0
274
    -2
284
     1
 64
     0
275
    -2
285
     1
 65
     0
276
    -2
286
     1
 66
     0
277
    -2
287
     1
 67
     0
278
    -2
288
     1
 68
     0
279
    -2
289
     1
 69
     0
  7
Standard
140
6.0
170
     5
 62
     0
 63
     7
283
     0
274
    -2
284
     1
 64
     0
275
    -2
285
     1
 65
     0
276
    -2
286
     1
 66
     0
277
    -2
287
     1
 67
     0
278
    -2
288
     1
 68
     0
279
    -2
289
     1
 69
     0
  7
Standard
140
4.5
170
     5
 62
     0
 63
     7
283
     0
274
    -2
284
     1
 64
     0
275
    -2
285
     1
 65
     0
276
    -2
286
     1
 66
     0
277
    -2
287
     1
 67
     0
278
    -2
288
     1
 68
     0
279
    -2
289
     1
 69
     0
  0
VISUALSTYLE
  5
F5
102
{ACAD_REACTORS
330
EF
102
}
330
EF
100
AcDbVisualStyle
  2
2dWireframe
 70
     4
 71
     0
 72
     2
 73
     1
 90
        0
 40
-0.6
 41
-30.0
 62
     5
 63
     7
421
 16777215
 74
     1
 91
        4
 64
     7
 65
   257
 75
     1
175
     1
 42
1.0
 92
        0
 66
   257
 43
1.0
 76
     1
 77
     6
 78
     2
 67
     7
 79
     5
170
     0
171
     0
290
     0
174
     0
 93
        1
 44
0.0
173
     0
291
     0
 45
0.0
1001
ACAD
1000
AcDbSavedByObjectVersion
1070
     0
  0
VISUALSTYLE
  5
F7
102
{ACAD_REACTORS
330
EF
102
}
330
EF
100
AcDbVisualStyle
  2
3D Hidden
 70
     6
 71
     1
 72
     2
 73
     2
 90
        0
 40
-0.6
 41
-30.0
 62
     5
 63
     7
421
 16777215
 74
     2
 91
        2
 64
     7
 65
   257
 75
     2
175
     1
 42
40.0
 92
        0
 66
   257
 43
1.0
 76
     1
 77
     6
 78
     2
 67
     7
 79
     3
170
     0
171
     0
290
     0
174
     0
 93
        1
 44
0.0
173
     0
291
     0
 45
0.0
1001
ACAD
1000
AcDbSavedByObjectVersion
1070
     0
  0
VISUALSTYLE
  5
F6
102
{ACAD_REACTORS
330
EF
102
}
330
EF
100
AcDbVisualStyle
  2
3dWireframe
 70
     5
 71
     0
 72
     2
 73
     1
 90
        0
 40
-0.6
 41
-30.0
 62
     5
 63
     7
421
 16777215
 74
     1
 91
        4
 64
     7
 65
   257
 75
     1
175
     1
 42
1.0
 92
        0
 66
   257
 43
1.0
 76
     1
 77
     6
 78
     2
 67
     7
 79
     5
170
     0
171
     0
290
     0
174
     0
 93
        1
 44
0.0
173
     0
291
     0
 45
0.0
1001
ACAD
1000
AcDbSavedByObjectVersion
1070
     0
  0
VISUALSTYLE
  5
F4
102
{ACAD_REACTORS
330
EF
102
}
330
EF
100
AcDbVisualStyle
  2
Basic
 70
     7
 71
     1
 72
     0
 73
     1
 90
        0
 40
-0.6
 41
-30.0
 62
     5
 63
     7
421
 16777215
 74
     0
 91
        4
 64
     7
 65
   257
 75
     1
175
     1
 42
1.0
 92
        8
 66
     7
 43
1.0
 76
     1
 77
     6
 78
     2
 67
     7
 79
     5
170
     0
171
     0
290
     0
174
     0
 93
        1
 44
0.0
173
     0
291
     1
 45
0.0
1001
ACAD
1000
AcDbSavedByObjectVersion
1070
     0
  0
VISUALSTYLE
  5
FB
102
{ACAD_REACTORS
330
EF
102
}
330
EF
100
AcDbVisualStyle
  2
Brighten
 70
    12
 71
     2
 72
     2
 73
     1
 90
        0
 40
-0.6
 41
-30.0
 62
     5
 63
     7
421
 16777215
 74
     1
 91
        4
 64
     7
 65
   257
 75
     1
175
     1
 42
1.0
 92
        8
 66
     7
 43
1.0
 76
     1
 77
     6
 78
     2
 67
     7
 79
     5
170
     0
171
     0
290
     0
174
     0
 93
        1
 44
50.0
173
     0
291
     1
 45
0.0
1001
ACAD
1000
AcDbSavedByObjectVersion
1070
     0
  0
VISUALSTYLE
  5
FF
102
{ACAD_REACTORS
330
EF
102
}
330
EF
100
AcDbVisualStyle
  2
ColorChange
 70
    16
 71
     2
 72
     2
 73
     3
 90
        0
 40
-0.6
 41
-30.0
 62
     5
 63
     8
421
  8421504
 74
     1
 91
        4
 64
     7
 65
   257
 75
     1
175
     1
 42
1.0
 92
        8
 66
     8
424
  8421504
 43
1.0
 76
     1
 77
     6
 78
     2
 67
     7
 79
     5
170
     0
171
     0
290
     0
174
     0
 93
        1
 44
0.0
173
     0
291
     1
 45
0.0
1001
ACAD
1000
AcDbSavedByObjectVersion
1070
     0
  0
VISUALSTYLE
  5
F8
102
{ACAD_REACTORS
330
EF
102
}
330
EF
100
AcDbVisualStyle
  2
Conceptual
 70
     9
 71
     3
 72
     2
 73
     1
 90
        0
 40
-0.6
 41
-30.0
 62
     5
 63
     7
421
 16777215
 74
     2
 91
        2
 64
     7
 65
   257
 75
     1
175
     1
 42
40.0
 92
        8
 66
     7
 43
1.0
 76
     1
 77
     6
 78
     2
 67
     7
 79
     3
170
     0
171
     0
290
     0
174
     0
 93
        1
 44
0.0
173
     0
291
     0
 45
0.0
1001
ACAD
1000
AcDbSavedByObjectVersion
1070
     0
  0
VISUALSTYLE
  5
FA
102
{ACAD_REACTORS
330
EF
102
}
330
EF
100
AcDbVisualStyle
  2
Dim
 70
    11
 71
     2
 72
     2
 73
     1
 90
        0
 40
-0.6
 41
-30.0
 62
     5
 63
     7
421
 16777215
 74
     1
 91
        4
 64
     7
 65
   257
 75
     1
175
     1
 42
1.0
 92
        8
 66
     7
 43
1.0
 76
     1
 77
     6
 78
     2
 67
     7
 79
     5
170
     0
171
     0
290
     0
174
     0
 93
        1
 44
-50.0
173
     0
291
     1
 45
0.0
1001
ACAD
1000
AcDbSavedByObjectVersion
1070
     0
  0
VISUALSTYLE
  5
FE
102
{ACAD_REACTORS
330
EF
102
}
330
EF
100
AcDbVisualStyle
  2
Facepattern
 70
    15
 71
     2
 72
     2
 73
     1
 90
        0
 40
-0.6
 41
-30.0
 62
     5
 63
     7
421
 16777215
 74
     1
 91
        4
 64
     7
 65
   257
 75
     1
175
     1
 42
1.0
 92
        8
 66
     7
 43
1.0
 76
     1
 77
     6
 78
     2
 67
     7
 79
     5
170
     0
171
     0
290
     0
174
     0
 93
        1
 44
0.0
173
     0
291
     1
 45
0.0
1001
ACAD
1000
AcDbSavedByObjectVersion
1070
     0
  0
VISUALSTYLE
  5
F0
102
{ACAD_REACTORS
330
EF
102
}
330
EF
100
AcDbVisualStyle
  2
Flat
 70
     0
 71
     2
 72
     1
 73
     1
 90
        2
 40
-0.6
 41
30.0
 62
     5
 63
     7
421
 16777215
 74
     0
 91
        4
 64
     7
 65
   257
 75
     1
175
     1
 42
1.0
 92
        8
 66
     7
 43
1.0
 76
     1
 77
     6
 78
     2
 67
     7
 79
     5
170
     0
171
     0
290
     0
174
     0
 93
        1
 44
0.0
173
     0
291
     1
 45
0.0
1001
ACAD
1000
AcDbSavedByObjectVersion
1070
     0
  0
VISUALSTYLE
  5
F1
102
{ACAD_REACTORS
330
EF
102
}
330
EF
100
AcDbVisualStyle
  2
FlatWithEdges
 70
     1
 71
     2
 72
     1
 73
     1
 90
        2
 40
-0.6
 41
30.0
 62
     5
 63
     7
421
 16777215
 74
     1
 91
        4
 64
     7
 65
   257
 75
     1
175
     1
 42
1.0
 92
        0
 66
   257
 43
1.0
 76
     1
 77
     6
 78
     2
 67
     7
 79
     5
170
     0
171
     0
290
     0
174
     0
 93
        1
 44
0.0
173
     0
291
     1
 45
0.0
1001
ACAD
1000
AcDbSavedByObjectVersion
1070
     0
  0
VISUALSTYLE
  5
F2
102
{ACAD_REACTORS
330
EF
102
}
330
EF
100
AcDbVisualStyle
  2
Gouraud
 70
     2
 71
     2
 72
     2
 73
     1
 90
        2
 40
-0.6
 41
30.0
 62
     5
 63
     7
421
 16777215
 74
     0
 91
        4
 64
     7
 65
   257
 75
     1
175
     1
 42
1.0
 92
        0
 66
     7
 43
1.0
 76
     1
 77
     6
 78
     2
 67
     7
 79
     5
170
     0
171
     0
290
     0
174
     0
 93
        1
 44
0.0
173
     0
291
     1
 45
0.0
1001
ACAD
1000
AcDbSavedByObjectVersion
1070
     0
  0
VISUALSTYLE
  5
F3
102
{ACAD_REACTORS
330
EF
102
}
330
EF
100
AcDbVisualStyle
  2
GouraudWithEdges
 70
     3
 71
     2
 72
     2
 73
     1
 90
        2
 40
-0.6
 41
30.0
 62
     5
 63
     7
421
 16777215
 74
     1
 91
        4
 64
     7
 65
   257
 75
     1
175
     1
 42
1.0
 92
        0
 66
   257
 43
1.0
 76
     1
 77
     6
 78
     2
 67
     7
 79
     5
170
     0
171
     0
290
     0
174
     0
 93
        1
 44
0.0
173
     0
291
     1
 45
0.0
1001
ACAD
1000
AcDbSavedByObjectVersion
1070
     0
  0
VISUALSTYLE
  5
FD
102
{ACAD_REACTORS
330
EF
102
}
330
EF
100
AcDbVisualStyle
  2
Linepattern
 70
    14
 71
     2
 72
     2
 73
     1
 90
        0
 40
-0.6
 41
-30.0
 62
     5
 63
     7
421
 16777215
 74
     1
 91
        4
 64
     7
 65
   257
 75
     7
175
     7
 42
1.0
 92
        8
 66
     7
 43
1.0
 76
     1
 77
     6
 78
     2
 67
     7
 79
     5
170
     0
171
     0
290
     0
174
     0
 93
        1
 44
0.0
173
     0
291
     1
 45
0.0
1001
ACAD
1000
AcDbSavedByObjectVersion
1070
     0
  0
VISUALSTYLE
  5
F9
102
{ACAD_REACTORS
330
EF
102
}
330
EF
100
AcDbVisualStyle
  2
Realistic
 70
     8
 71
     2
 72
     2
 73
     1
 90
        0
 40
-0.6
 41
-30.0
 62
     5
 63
     7
421
 16777215
 74
     1
 91
        0
 64
     7
 65
   257
 75
     1
175
     1
 42
1.0
 92
        8
 66
     8
424
  7895160
 43
1.0
 76
     1
 77
     6
 78
     2
 67
     7
 79
     5
170
     0
171
     0
290
     0
174
     0
 93
       13
 44
0.0
173
     0
291
     0
 45
0.0
1001
ACAD
1000
AcDbSavedByObjectVersion
1070
     0
  0
VISUALSTYLE
  5
FC
102
{ACAD_REACTORS
330
EF
102
}
330
EF
100
AcDbVisualStyle
  2
Thicken
 70
    13
 71
     2
 72
     2
 73
     1
 90
        0
 40
-0.6
 41
-30.0
 62
     5
 63
     7
421
 16777215
 74
     1
 91
        4
 64
     7
 65
   257
 75
     1
175
     1
 42
1.0
 92
       12
 66
     7
 43
1.0
 76
     1
 77
     6
 78
     2
 67
     7
 79
     5
170
     0
171
     0
290
     0
174
     0
 93
        1
 44
0.0
173
     0
291
     1
 45
0.0
1001
ACAD
1000
AcDbSavedByObjectVersion
1070
     0
  0
DICTIONARYVAR
  5
84
102
{ACAD_REACTORS
330
5E
102
}
330
5E
100
DictionaryVariables
280
     0
  1
STANDARD
  0
DICTIONARYVAR
  5
5F
102
{ACAD_REACTORS
330
5E
102
}
330
5E
100
DictionaryVariables
280
     0
  1
2
  0
DICTIONARYVAR
  5
63
102
{ACAD_REACTORS
330
5E
102
}
330
5E
100
DictionaryVariables
280
     0
  1
1
  0
DICTIONARYVAR
  5
3A0
102
{ACAD_REACTORS
330
5E
102
}
330
5E
100
DictionaryVariables
280
     0
  1
80.000000
  0
DICTIONARYVAR
  5
39F
102
{ACAD_REACTORS
330
5E
102
}
330
5E
100
DictionaryVariables
280
     0
  1
5.000000
  0
DICTIONARY
  5
4AB
330
ED
100
AcDbDictionary
280
     1
281
     1
  3
ACAD_XREC_ROUNDTRIP
360
4AC
  0
DICTIONARY
  5
4A9
330
EC
100
AcDbDictionary
280
     1
281
     1
  3
ACAD_XREC_ROUNDTRIP
360
4AA
  0
DICTIONARY
  5
4AD
330
EE
100
AcDbDictionary
280
     1
281
     1
  3
ACAD_XREC_ROUNDTRIP
360
4AE
  0
DICTIONARY
  5
4A7
330
7F
100
AcDbDictionary
280
     1
281
     1
  3
ACAD_XREC_ROUNDTRIP
360
4A8
  0
XRECORD
  5
4AC
102
{ACAD_REACTORS
330
4AB
102
}
330
4AB
100
AcDbXrecord
280
     1
102
MATERIAL
148
0.0
149
0.0
149
0.0
 93
        0
 94
       63
282
     0
 72
     1
 77
     1
171
     1
175
     1
179
     1
273
     0
  0
XRECORD
  5
4AA
102
{ACAD_REACTORS
330
4A9
102
}
330
4A9
100
AcDbXrecord
280
     1
102
MATERIAL
148
0.0
149
0.0
149
0.0
 93
        0
 94
       63
282
     0
 72
     1
 77
     1
171
     1
175
     1
179
     1
273
     0
  0
XRECORD
  5
4AE
102
{ACAD_REACTORS
330
4AD
102
}
330
4AD
100
AcDbXrecord
280
     1
102
MATERIAL
148
0.0
149
0.0
149
0.0
 93
        0
 94
       63
282
     0
 72
     1
 77
     1
171
     1
175
     1
179
     1
273
     0
  0
XRECORD
  5
4A8
102
{ACAD_REACTORS
330
4A7
102
}
330
4A7
100
AcDbXrecord
280
     1
102
ACAD_ROUNDTRIP_PRE2007_TABLESTYLE
 90
      512
 91
        0
  1

 92
      512
 93
        0
  2

 94
      512
 95
        0
  3

  0
ENDSEC
  0
EOF
